Song name
# A B C D E F G H I J K L M N O P Q R S T U V W X Y Z

Shooter Jennings - Fuck You Im Famous tab

Fuck You (I'm Famous)
Shooter Jennings and Hierophant
from: Black Ribbons


Tuning: Standard tuning, Drop D

e|--------------------------|
B|--------------------------|
G|--------------------------|
D|--------------------------|
A|---5h7-5h7-5h7-5h7-5h7----|
D|---5h7-5h7-5h7-5h7-5h7----|

verse
e|---------------------------|
B|---------------------------|
G|-----------5---7----8--5---|
D|---7----5--5---7----8--5---|
A|---7----5--3---5----6--3---|
D|---7----5------------------|

e|----------------------------|
B|----------------------------|
G|-----------5---7------------|
D|---7----5--5---7---8-8-8-8--|
A|---7----5--3---5---8-8-8-8--|
D|---7----5----------8-8-8-8--|

bridge(listen for changes)
e|----------------------------------------------------------------|
B|----------------------------------------------------------------|
G|----------------------------------------------------------------|
D|----------------------------------------------------------------|
A|--5h7-5h7-8h10-8h10-10h12-10h12-14h17-14h17-17h19-17h19-17-19b--|
D|--5h7-5h7-8h10-8h10-10h12-10h12-14h17-14h17-17h19-17h19---------|


*sweet_inc*
Tap to rate this tab
 
# A B C D E F G H I J K L M N O P Q R S T U V W X Y Z