Guitaretab - guitar tabs
Song name
# A B C D E F G H I J K L M N O P Q R S T U V W X Y Z

Shooter Jennings - Long Way From Home tab

....I kno this is kinda hard to comprehend....but once u get it you'll see that it's 
easy to play...good luck!

 \=down strum
 V=up strum

Intro...

E-----------|
B-----3-----|
G----2------|
D---0-------|
A--0--------|
E-3---------|

When playing G....

E---------|      E---------|
B---------|      B---------|
G---------| \V   G---------| \V
D---------|      D---------|
A---------|      A---2-----|
E---3-----|      E---------|

When playing A....

E---------|      E---------|
B---------|      B---------|
G---------| \V   G---------|  \V
D---------|      D---------|
A---0-----|      A---------|
E---------|      E---0-----|

When playing D....

E---------|      E---------|
B---------|      B---------|
G--3------|  \V  G---------|  \V
D---------|      D---0-----|
A---------|      A---------|
E---------|      E---------|

*When going from D to G*....

E--0-2-3---|
B----------|
G----------|
D----------|
A----------|
E----------|
[ Tab from: http://www.guitaretab.com/s/shooter-jennings/74375.html ]
The strum for D7 is....

  \ \ V V \

(chorus)
       G   A
I'm a long way from home
G      A
 And so all alone
G                 A                *D*
 Homesick, like I never thought I'd be
       G   A
I'm a long way from home
G         A
 And everything is wrong
G               A          D
 Someone please watch over me
___________________________


D       D7                  G
I'm not accustomed to these feelings
A                               D
 The lonliness is burning in my soul
D             D7          G
Sometimes the mind is so misleading
A                                    *D*
I wish I'd stayed at home like I was told


___________________________
(chorus)
       G   A
I'm a long way from home
G      A
 And so all alone
G                 A                *D*
 Homesick, like I never thought I'd be
       G   A
I'm a long way from home
G         A
 And everything is wrong
G               A          D
 Someone please watch over me
Related for Long Way From Home tab