Guitaretab - guitar tabs
Song name
# A B C D E F G H I J K L M N O P Q R S T U V W X Y Z

Shooter Jennings - Steady At The Wheel tab

-------------------------------------------------------------------------------
			     Steady At The Wheel - Shooter Jennings
-------------------------------------------------------------------------------
Tabbed by: K. Hoaglund
Email: Nacuda9@sbcglobal.net

Tuning: Standard E

   Guitar 1 

e|---------------------------------------------------------------------------|
B|---------------------------------------------------------------------------|
G|---2-2---------------------------------------------------------------------|
D|---2-2---------------------------------------------------------------------|
A|---0-0---------------------------------------------------------------------|
E|---------------------------------------------------------------------------|
    Guitar 2 Riff 1 (3x)

e|---------------------------------------------------------------------------|
B|---------------------------------------------------------------------------|
G|-------4^(5)--2-------0h2p0-------2----------------------------------------|
D|---------------------------------------------------------------------------|
A|---0-0-----------0-0---------3-0-------------------------------------------|
E|---------------------------------------------------------------------------|
    Then Riff 2

e|---------------------------------------------------------------------------|
B|---------------------------------------------------------------------------|
G|-------4^(5)---2------0h2p0-------2----------------------------------------|
D|---------------------------------------------------------------------------|
A|---0-0-----------------------3-0-------------------------------------------|
E|---------------------------------------------------------------------------|
    
    Verse
[ Tab from: http://www.guitaretab.com/s/shooter-jennings/80072.html ]
      A        A       D                            Riff 2
e|---------------------2-----------------------------------------------------|
B|---------------------3-----------------------------------------------------|
G|---2-2-------2-2-----2-----------------------------------------------------|
D|---2-2-------2-2-----------------------------------------------------------|
A|---0-0-------0-0-----------------------------------------------------------|
E|-----------------------------------0-h-2-3-4-------------------------------|
   
    Chorus Chords  G, D, G, D
    Riff 2
    Verse again
    
   
    Solo Intro
  Guitar 1  (Very similiar underneath Solo As well, Listen if playing this part.)
e|---------------------------------------------------------------------------|
B|---------------------------------------------------------------------------|
G|---2-2-2-----------2-2-----------2-2-2-------------------------------------|
D|---2-2-2-----------2-2-----------2-2-2-------------------------------------|
A|---0-0-0-----------0-0-----------0-0-0-------------------------------------|
E|---------------------------------------------------------------------------|
        
    Guitar 2 

e|---------------------------------------------------------------------------|
B|---------------------------------------------------------------------------|
G|-----------2-2-2---------2-2-2---------------------------------------------|
D|-----------2-2-2---------2-2-2---------------------------------------------|
A|-----------0-0-0---------0-0-0---------------------------------------------|
E|------------------------------------------3^-------------------------------|
    Solo
e|------------------------------------------------8-10-8~--10^r10-8-10-10-8--|
B|--8----------------------------------------8h10~---------------------------|
G|--^7-slow return--5~ ------------------/-\---------------------------------|
D|---------------------/-\-7-5-----------------------------------------------|
A|---------------------------^5r-3-------------------------------------------|
E|---------------------------------5-3h5-------------------------------------|

e|-------12-15 trill-----12-15----12-----------------------------------------|
B|--------------------15-------15----13-----------13----------13-15-15^-13---|
G|-/-\----------------------------------14-12-14-----14p12-------------------|
D|---------------------------------------------------------14----------------|
A|---------------------------------------------------------------------------|
E|---------------------------------------------------------------------------|

e|---------------------------------------------------------------------------|
B|-7-8-10-12---10-12-13-15-15^~~---------------------------------------------|
G|---------------------------------------------------------------------------|
D|---------------------------------------------------------------------------|
A|---------------------------------------------------------------------------|
E|---------------------------------------------------------------------------|
     Riff 2 once
     Chorus
     End with Riff 1 or 2 however many times played.


| /  slide up
| \  slide down
| h  hammer-on
| p  pull-off
| ~  vibrato
| +  harmonic
| x  Mute note
===============================================================================
Related for Steady At The Wheel tab