Song name
# A B C D E F G H I J K L M N O P Q R S T U V W X Y Z

Shooter Jennings - Daddys Farm tab

Intro Riff:
E----------------------------------------------------------|
B----------------------------------------------------------|
G----------------------------------------------------------|
D----------------------------------------------------------|
A--2-2----------2-2----------2-2----------2-2--------------|
E--0-0----------0-0----------0-0----------0-0--------------|

E----------------------------------------------------------|
B----------------------------------------------------------|
G----------------------------------------------------------|
D--------------------------------0-7b-5--------------------|
A------5-7---------5-6-7-----5-7--------7-5----------------|
E--0-0-----0-5-6-7-------0-0-------------------------------|

E----------------------------------------------------------|
B----------------------------------------------------------|
G----------------------------------------------------------|
D--------------------------------0-7b-5--------------------|
A------5-7---------5-6-7-----5-7--------7-5----------------|
E--0-0-----0-5-6-7-------0-0-------------------------------|
Tap to rate this tab
# A B C D E F G H I J K L M N O P Q R S T U V W X Y Z