Guitaretab - guitar tabs
Song name
# A B C D E F G H I J K L M N O P Q R S T U V W X Y Z

Shootie Hg - Devils Never Cry tab

Lyrics and Vocals written and performed by: SHOOTIE HG
Music written and performed by: Tetsuya Shibata

Here's how this works, the verse is sung, okay? THEN the guitar plays it's riff as
(twice[as indicated) not WITH the lyrics. And yes, I DID make sure this riff is correct, If
correct, Tetsuya plays this song on a LINE6. The setting that best sounds like the 
is on a LINE6 Spider amp with the distortion knob turned to "Insane" make sure the
is red, not green. This tab harmonizes with the song, so don't e-mail me complaints that 
doesn't sound right.
If it doesn't sound right, then tune your damn guitar to DROP D.
thank you, and enjoy the song.

Legend:
s=slide
p=pull off
h=hammer on


"Steel a soul for a second chance
But you will never become a man

"My chosen torture makes me stronger
In a life that craves the hunger
A Freedom and a quest for life
Until the end the judgment night"

E]-----------------------------------------------------|E
B]-----------------------------------------------------|B
G]-----------------------------------------------------|G
D]--7-8-5--7-7s10s7s10---------------------------------|D  x2]
A]--7-8-5--7-7s10s7s10---------------------------------|A
D]--7-8-5--7-7s10s7s10---------------------------------|D

"Bless me with your gift of light
Righteous cause on judgment night
Feel the sorrow the light has swallowed
Feel the freedom like no tomorrow"

E]-----------------------------------------------------|E
B]-----------------------------------------------------|B
G]-----------------------------------------------------|G
D]--7-8-5--7-7s10s7s10---------------------------------|D  x2]
A]--7-8-5--7-7s10s7s10---------------------------------|A
D]--7-8-5--7-7s10s7s10---------------------------------|D

"Stepping forth a cure for soul's demise
Reap the tears of the victim's cries
Yearning more to hear the suffer (of a)
Of a demon as I put it under"

E]-----------------------------------------------------|E
B]-----------------------------------------------------|B
G]-----------------------------------------------------|G
D]--7-8-5--7-7s10s7s10---------------------------------|D  x2]
A]--7-8-5--7-7s10s7s10---------------------------------|A
D]--7-8-5--7-7s10s7s10---------------------------------|D

"Killed before, a time to kill them all
Passed down the righteous law
Serve a justice that dwells in me
Lifeless corpse as far as the eye can see"

E]-----------------------------------------------------|E
B]-----------------------------------------------------|B
G]-----------------------------------------------------|G
D]--7-8-5--7-7s10s7s10---------------------------------|D  x6]
A]--7-8-5--7-7s10s7s10---------------------------------|A
D]--7-8-5--7-7s10s7s10---------------------------------|D
(play this riff after "the eye can see" and play it 6 times while SHOOTIE HG is
"The eye can see")

(clean vocal lyrics*)

"Bless me with the
Leaf off of the tree
On it I see
The freedom reign"

(Play this riff WITH the clean vocals, try playing the guitar clean with the treble
all the way down on the guitar)

E]-----------------------------------------------------|E
B]-----------------------------------------------------|B
G]-----------------------------------------------------|G
D]-----------------------------------------------------|D
A]--0h7-8p5-0---8p7-3---3h5-2h5-2h5-3p0----------------|A
D]------------6-------6--------------------------------|D

"We are falling
The light is calling
Tears inside me
Calm me down"

E]-----------------------------------------------------|E
B]-----------------------------------------------------|B
G]-----------------------------------------------------|G
D]-----------------------------------------------------|D
A]--0h7-8p5-0---8p7-3---3h5-2h5-2h5-3p0----------------|A
D]------------6-------6--------------------------------|D

"Midnight calling
Mist of resolving
Crown me, with the
Pure green leaf"
[ Tab from: http://www.guitaretab.com/s/shootie-hg/88391.html ]
E]-----------------------------------------------------|E
B]-----------------------------------------------------|B
G]-----------------------------------------------------|G
D]-----------------------------------------------------|D
A]--0h7-8p5-0---8p7-3---3h5-2h5-2h5-3p0----------------|A
D]------------6-------6--------------------------------|D

"Praise to my father
Blessed by the water
Black night, dark sky
The devil's cry"

E]-----------------------------------------------------|E
B]-----------------------------------------------------|B
G]-----------------------------------------------------|G
D]-----------------------------------------------------|D
A]--0h7-8p5-0---8p7-3---3h5-2h5-2h5-3p0----------------|A
D]------------6-------6--------------------------------|D

"Bless me with the
Leaf off of the tree
On it I see
The freedom reign"

E]-----------------------------------------------------|E
B]-----------------------------------------------------|B
G]-----------------------------------------------------|G
D]-----------------------------------------------------|D
A]--0h7-8p5-0---8p7-3---3h5-2h5-2h5-3p0----------------|A
D]------------6-------6--------------------------------|D

"We are falling
The light is calling
Tears inside me
Calm me down"

E]-----------------------------------------------------|E
B]-----------------------------------------------------|B
G]-----------------------------------------------------|G
D]-----------------------------------------------------|D
A]--0h7-8p5-0---8p7-3---3h5-2h5-2h5-3p0----------------|A
D]------------6-------6--------------------------------|D

"Midnight calling
Mist of resolving
Crown me, with the
Pure green leaf"

E]-----------------------------------------------------|E
B]-----------------------------------------------------|B
G]-----------------------------------------------------|G
D]-----------------------------------------------------|D
A]--0h7-8p5-0---8p7-3---3h5-2h5-2h5-3p0----------------|A
D]------------6-------6--------------------------------|D

"Bless me with the
Leaf off of the tree
On it I see
The freedom reign"

E]-----------------------------------------------------|E
B]-----------------------------------------------------|B
G]-----------------------------------------------------|G
D]-----------------------------------------------------|D
A]--0h7-8p5-0---8p7-3---3h5-2h5-2h5-3p0----------------|A
D]------------6-------6--------------------------------|D

"Praise to my father
Blessed by the water
Black night, dark sky
The devil's cry"

E]-----------------------------------------------------|E
B]-----------------------------------------------------|B
G]-----------------------------------------------------|G
D]-----------------------------------------------------|D
A]--0h7-8p5-0---8p7-3---3h5-2h5-2h5-3p0----------------|A
D]------------6-------6--------------------------------|D


(Continue this riff until the end of the song, even when the demonic vocals come in.)

(Demonic vocals under choral vocals)

"Life of vengeance, a passive test
Until the grave I will rest
Engage the pressure until it crumbles
The existence of the lifeless black souls"

"Onward to the sacred battlefield
Where justification and limits are revealed
Tools of steel in rage they conquer
Weed out the killing of victim's stalker"

"The powers proven to end the madness
Upon I take it to end the savage
The rays of light a truth of meaning
To my father the blood is pleading"

"A justice rage for all to feel
With innocent cries and hatred squeals
The gore of evil seems to satisfy
When slain an maimed and pacified"

"My chosen torture makes me stronger
In a life that craves the hunger
A Freedom and a quest for life
Until the end the judgment night"

"Watch the footsteps but never follow
If you want to live tomorrow
Steal a soul for a second chance
But you will never become a man"

That's the song, enjoy!

If you have any questions or comments please send them in a message to my   myspace:

             www.myspace.com/dark_is_my_light


Thank you to the DMC3 team for putting together a fucking awesome song, and thank you UG
letting me tab it.