Song name
# A B C D E F G H I J K L M N O P Q R S T U V W X Y Z

Shooting At Unarmed Men - This Much Is A Lot tab

Help us improve GuitareTab! Take a short survey!
Shooting At Unarmed Men - This Much Is A Lot
tabbed by LuckyJim 


Intro/Verse
------------
E [-----------------5-5-5-5555-5-5---]
B [-----7-----------6-6-6-6665-5-5---]
G [-7-7---7-5-5-5-4------------------]
D [----------------------------------]
A [----------------------------------]
E [----------------------------------]



Chorus
------

...its does you good...

E [----------------------------------]
B [----------------------------------]
G [-7-7-7-6-7-7-7-6-7-7-7-6-7-7-7-6--]
D [----------------------------------]
A [----------------------------------]
E [----------------------------------]



Outro
-----

E [---5-----5---]
B [---6-----5---]
G [---7-----7---]
D [-------------]
A [-------------]
E [-------------]



i'm not as pregnant as you...

E [---5-----5-----5-----5-----5-----5-----5-----5-----5-----5-----5-----5-----5-----5-----5-----5-]
B [-----6-----6-----6-----6-----6-----6-----6-----6-----6-----6-----6-----6-----6-----6-----6-----]
G [-7-----7-----7-----7-----6-----6-----6-----6-----5-----5-----5-----5-----3-----3-----3-----3---]
D [-----------------------------------------------------------------------------------------------]
A [-----------------------------------------------------------------------------------------------]
E [-----------------------------------------------------------------------------------------------]

http://www.shootingatunarmedmen.co.uk/
Related for This Much Is A Lot tab