Song name
# A B C D E F G H I J K L M N O P Q R S T U V W X Y Z

Shooting At Unarmed Men - Four Eyed Mcclayvie tab

Shooting At Unarmed Men - Four Eyed McClayvie


Intro
-----

                    (-----P.M.-----)
E [--------------------------------]
B [--------------------------------]
G [-7---7-7-7-7-7-7----------------]
D [-7---7-7-7-7-7-7-7-7-7-7766-6-6-]
A [-5---5-5-5-5-5-5-7-7-7-7766-6-6-]
E [-----------------5-5-5-5544-4-4-]


he's got that evil look in his...

E [--------------------]
B [--------------------]
G [---11---9---7---2---]
D [----------------2---]
A [---9----7---5---0---]
E [--------------------]


Chorus
------

E [-------------------------------------------------2-2-2-2-2-2-2-2-]
B [---------------2-3-3-3-3-2-3-2-3---------------2-3-3-3-3-3-3-3-3-]
G [-2-2-2-2-3-2-3-------------------2-2-2-2-3-2-3-------------------]
D [-----------------------------------------------------------------]
A [-----------------------------------------------------------------]
E [-----------------------------------------------------------------]


Outro (same as intro but without muting)
-----

E [--------------------------------]
B [--------------------------------]
G [-7---7-7-7-7-7-7----------------]
D [-7---7-7-7-7-7-7-7-7-7-7766-6-6-]
A [-5---5-5-5-5-5-5-7-7-7-7766-6-6-]
E [-----------------5-5-5-5544-4-4-]



P.M. - Palm Mute
Tap to rate this tab
# A B C D E F G H I J K L M N O P Q R S T U V W X Y Z