Song name
# A B C D E F G H I J K L M N O P Q R S T U V W X Y Z

Shooting Blanks - Ignore Me tab

-------------------------------------------------------------------------------
			     IGNORE ME - Shooting Blanks
-------------------------------------------------------------------------------

Album: Wasted Time
Tabbed by: Matt Hoffman
Email: Hoffman@shootingblanks.net

Tuning: Standard - E A D G B E


INTRO:
(hold notes)
 C#                        F#           G#
 C#                        F#           G#
(palm mute)
   F            A#           D#           F#     G#
e|--------------------------------------------------|
B|--------------------------------------------------|
G|---------------------------8------------11-----13-|
D|-3------------8------------8----------------------|
A|-3------------8------------6------------9------11-|
E|-1------------6-----------------------------------|


MAIN RIFF:
   c#                  F#       G#
e|--------------------------------------------------|
B|----------6666----------------66-44----44---------|
G|-66666666------6666-----------------66------------|    x 2
D|---------------------44444444---------------------|
A|--------------------------------------------------|
E|--------------------------------------------------|


VERSE:
 C#         F#    G#   x 2


CHORUS:
   C#                       F#           G#
e|--------------------------------------------------|
B|--------------------------11-----------13---------|
G|-11-----------------------11-----------13---------|   x 4
D|-11-----------------------11-----------13---------|
A|-11-----------------------9------------11---------|
E|-9------------------------------------------------|


OUTRO:
   C#                       F#           G#
e|-9------------------------------------------------|
B|--------------------------------------------------|
G|-6------------------------11-----------13---------|
D|--------------------------------------------------|
A|--------------------------9------------11---------|
E|--------------------------------------------------|

| /  slide up
| \  slide down
| h  hammer-on
| p  pull-off
| ~  vibrato
| +  harmonic
| x  Mute note
===============================================================================
Tap to rate this tab
 
# A B C D E F G H I J K L M N O P Q R S T U V W X Y Z