Song name
# A B C D E F G H I J K L M N O P Q R S T U V W X Y Z

Shooting Blanks - Ripping Hammer tab

-------------------------------------------------------------------------------
			RIPPING HAMMER - Shooting Blanks
-------------------------------------------------------------------------------

Album: The Sticky Album
Tabbed by: Matt Hoffman
Email: Hoffman@shootingblanks.net

Tuning: Standard - E A D G B E


INTRO:
   E         G         A         C    D
e|-------------------------------8----10----|
B|------------------------------------------|
G|-------------------------------5----7-----|
D|-2---------5---------3--------------------|
A|-2---------5---------3--------------------|
E|-0---------3---------5--------------------|

VERSE:
 E         G         A         C    D

PRE-CHORUS:
 C         D         G         B
 C         D

CHORUS:
 C         G         A         C    D
 C         G         A         C    D

SOLO:
   E                                       G
e|--------------------------------------------------------------------------|
B|--------------------------------------------------------------------------|
G|-12-12-12-12-11-11-11-11-9-9-9-9-7-7-7-7-9-9-9-9-7-7-7-7-6-6-6-6-7-7-7-7--|
D|--------------------------------------------------------------------------|
A|--------------------------------------------------------------------------|
E|--------------------------------------------------------------------------|

   A                C           D
e|--------------------------------------------------------------------------|
B|-9-7-6-7-9-7-9-11-12-11-12-14-15-14-15-17---------------------------------|
G|--------------------------------------------------------------------------|
D|--------------------------------------------------------------------------|
A|--------------------------------------------------------------------------|
E|--------------------------------------------------------------------------|

   E
e|-20p17h15-21p17h15-22p17h15-21p17h15-20p17h15-21p17h15-22p17h15-21p17h15--|
B|--------------------------------------------------------------------------|
G|--------------------------------------------------------------------------|
D|--------------------------------------------------------------------------|
A|--------------------------------------------------------------------------|
E|--------------------------------------------------------------------------|

   G
e|-20p17h15-21p17h15-22p17h15-21p17h15-20p17h15-21p17h15-22p17h15-21p17h15--|
B|--------------------------------------------------------------------------|
G|--------------------------------------------------------------------------|
D|--------------------------------------------------------------------------|
A|--------------------------------------------------------------------------|
E|--------------------------------------------------------------------------|

   A
e|-20p17h15-21p17h15-22p17h15-21p17h15-20p17h15-21p17h15-22p17h15-21p17h15--|
B|--------------------------------------------------------------------------|
G|--------------------------------------------------------------------------|
D|--------------------------------------------------------------------------|
A|--------------------------------------------------------------------------|
E|--------------------------------------------------------------------------|

   C                     D
e|-17b-17-15h17p15----------------------------------------------------------|
B|-----------------17-15-17-15----------------------------------------------|
G|-----------------------------17-15-17-15----------------------------------|
D|-----------------------------------------17-15----------------------------|
A|-----------------------------------------------17~~~~---------------------|
E|--------------------------------------------------------------------------|

OUTRO:
   E                               G
e|--------------------------------------------------------------------------|
B|--------------------------------------------------------------------------|
G|-9-9-9-9-7-7-7-7-6-6-6-6-7-7-7-7-9-9-9-9-7-7-7-7-6-6-6-6-7-7-7-7----------|
D|--------------------------------------------------------------------------|
A|--------------------------------------------------------------------------|
E|--------------------------------------------------------------------------|

   A                       C           D           E
e|--------------------------------------------------------------------------|
B|--------------------------------------------------------------------------|
G|-9-7-9-11-12-11-12-14-14-14-12-11-12-11-9-11-9-7-9~~~~~-------------------|
D|--------------------------------------------------------------------------|
A|--------------------------------------------------------------------------|
E|--------------------------------------------------------------------------|

| /  slide up
| \  slide down
| h  hammer-on
| p  pull-off
| ~  vibrato
| +  harmonic
| x  Mute note
===============================================================================
Tap to rate this tab
# A B C D E F G H I J K L M N O P Q R S T U V W X Y Z