Song name
# A B C D E F G H I J K L M N O P Q R S T U V W X Y Z

Shooting Blanks - You Deserve It tab

-------------------------------------------------------------------------------
			YOU DESERVE IT - Shooting Blanks
-------------------------------------------------------------------------------

Album: The Sticky Album
Tabbed by: Matt Hoffman
Email: Hoffman@shootingblanks.net

Tuning: Standard - E A D G B E


VERSE:
 E           A      B
 E           A      B
 C#    B     E      A
 F#          A      B

BREAK BETWEEN VERSES 1 & 2:
   E                          E          E       E
e|----------------------------------------------------------------|
B|----------------------------------------------------------------|
G|----------------------------------------------------------------|
D|-14-------------------------14-----------------6----------------|
A|-14----14p.m.---------------14---------7---7-9---9-7------------|
E|-12----12p.m.---------------12-----------9-----------9----------|

CHORUS:
 E           A      B
 E           A      B
 A     B     G#     C#
 A     B     E

SOLO:
   E                   A   B   E                A       B
e|----------------------------------------------------------------|
B|----------10---------10~--------------10~-----10------10--------|
G|-9-999999----11-9-11-----11~-9-999999-----11~----11-9----11-9---|
D|----------------------------------------------------------------|
A|----------------------------------------------------------------|
E|----------------------------------------------------------------|

   C#      B       E       A         F#
e|---------------------------------------------------------------------------------|
B|-------------------------10------------------------------------------------------|
G|-8--9----8--9----8--9--------11-9--11--11-11-11-11-11-11-11-11-11-11-11-11-11-11-|
D|------9-------9-------9----------------------------------------------------------|
A|---------------------------------------------------------------------------------|
E|---------------------------------------------------------------------------------|

   A                     B                                  (E)
e|-------------------------------------------------------------------------------|
B|-----------------------------------------------------------17~~~~~-------------|
G|-14--14-14-14-14-14-14-16h18p16-16h18p16-16h18p16-16h18p16---------------------|
D|-------------------------------------------------------------------------------|
A|-------------------------------------------------------------------------------|
E|-------------------------------------------------------------------------------|

END VERSE:
 E           A      B
 E           A      B
 C#    B     E      A
 C#    B     E      A
 C#    B     E

| /  slide up
| \  slide down
| h  hammer-on
| p  pull-off
| ~  vibrato
| +  harmonic
| x  Mute note
===============================================================================
Tap to rate this tab
# A B C D E F G H I J K L M N O P Q R S T U V W X Y Z