Guitaretab - guitar tabs
Song name
# A B C D E F G H I J K L M N O P Q R S T U V W X Y Z

Shores Of Sheol - King Of The Olden Domain tab

Artist: Shores of Sheol
Album: Revelations 
Song: King of the Olden Domain
Tuning: Standard

Riff 1 x 4  

|---------------------------------------------------------|
|---------------------------------------------------------|
|---------------------------------------------------------|
|-7-77-7/10/12-12\10\9--7-77-7\5-5-5/7-7------------------|
|-5-55-5/-8/10-10\-8\7--5-55-5\3-3-3/5-5------------------|
|---------------------------------------------------------|
    ..                    .. 

 
Riff 2 x 8 tremolo picking

|---------------------------------------------------------|
|---------------------------------------------------------|
|---------------------------------------------------------|
|----7򀚁򁕅-------------------------------------------|
|-5-----------8򁁚-------------------------------------|
|---------------------------------------------------------|

Riff 3 x 8  
[ Tab from: http://www.guitaretab.com/s/shores-of-sheol/84530.html ]
|---------------------------------------------------------|
|---------------------------------------------------------|
|---------------------------------------------------------|
|-7-7------------7-7----5----10-9-------------------------|
|-5-5-888-888/10-5-5-55-3-33--8-7-------------------------|
|-----666-666/-8------------------------------------------|
	 ...	..		 ..	 ..

Riff 4 x 4 

|---------------------------------------------------------|
|---------------------------------------------------------|
|---------------------------------------------------------|
|-7--------7--10-5----------------------------------------|
|-5--8-10--5---8-3----------------------------------------|
|----6--8-------------------------------------------------|

Riff 2 x 4 

Riff 5 - Bridge

|---------------------------------------------------------|
|---------------------------------------------------------|
|---------------------------------------------------------|
|-7-777-777-77-55-7-777-777-77-55--3-333...---------------|
|-5-555-555-55-66-5-555-555-55-66--1-111...---------------|
|---------------------------------------------------------|
    ..  ..  .. 	..  ..  ..	  ..

Riff 4 x 4 - END