Song name
# A B C D E F G H I J K L M N O P Q R S T U V W X Y Z

Short Stack - Shimmy A Go Go tab

Hey Im an Aussie and I love seeing Aussie talent
THIS SONG ROCKS So I learnt it by ear.
HAVE FUN!?!?!




Intro: (Just Guitar)
|-----------------------------------------------------|
|-----------------------------------------------------|
|-----------------------------------------------------|
|----33--------33--------66--66--33-3h4-3--33-3h4-3---|
|--11--4433------4433--44--44------------4---------4--|
|------------44---------------------------------------|
Intro: (Band Comes In)
|---------------------------------------------|
|---------------------------------------------|
|---------------------------------------------|
|----33--------33--------66--66----4433-------|
|--11--4433------4433--44--44----33----44-1~--|
|------------44-------------------------------|

Verse: [x2] (Comes In At Second Half Of Verse)
|-----------------------------------|
|-----------------------------------|
|------------------66-666-----------|
|--88-888--44-444--66-666--33-4433--|
|--88-888--44-444--44-444--33-------|
|--66-666--22-222----------11-------|

Pre-Chorus: (Little Palm Muted bit before chorus)
|----------|
|----------|
|----------|
|--3-3-33--|
|--3-3-33--|
|--1-1-11--|
   . . ..

Chorus: [x4] (Strumming Is Simple)
Rythm (Hard To hear If It has one cause of bass)
|--------------|
|--------------|
|--------6-----|
|--8--4--6--3--|
|--8--4--4--3--|
|--6--2-----1--|

Lead - Intro (With Band) x3 then..
|------------------------------------|
|------------------------------------|
|------------------------------------|
|----33--------33--------66--66--33--|
|--11--4433------4433--44--44--------|
|------------44----------------------|

|---------------------------|
|---------------------------|
|---------------------------|
|--33-3h4-3--33-3h4-33-3h4--|
|----------4----------------|
|---------------------------|

Verse 2: (comes in before second half riff)
|---------------------------|
|---------------------------|
|---------------------------|
|---------------------------|
|--1~-3-4----4-3-4~-6-8-4~--|
|---------2~----------------|

Verse (Second Half Riff)
Pre-Chorus
Chorus (Lead - Intro With Band x4)
Intro (With band) [x2]

Solo:
|----------------------------------------|
|----------------------------------------|
|----------------------------------------|
|----334433--443344--6/8-6\4-----4433----|
|--11--------------44-------44-33----44--|
|----------22----------------------------|

Verse (Second Half Riff)
Chorus

There we have it. The whole song.
:P Enjoy Playing!
Tap to rate this tab
 
# A B C D E F G H I J K L M N O P Q R S T U V W X Y Z