Guitaretab - guitar tabs
Song name
# A B C D E F G H I J K L M N O P Q R S T U V W X Y Z

Short Stack - Sway Sway Baby tab

First time for tabing...let me know what you think...


/= slide


Intro

e|--44--444--44--444--44--444--44--444-|
B|--44--444--44--444--44--444--44--444-|
G|--66--666--66--666--66--666--66--666-|
D|--66--666--66--666--66--666--66--666-|
A|--44--444--44--444--44--444--44--444-|
E|-------------------------------------|

Chours

(note: the strumming is pretty simple just cant be bothered to write it out)
e|--4---6---6---4---|-4--|
B|--4---6---6---4---|-4--|
G|--6---8---6---4---|-6--|
D|--6---8---8---6---|-6--|
A|--4---6---8---6---|-4--|
E|----------6---4---|----|

Solo
e|-----------------|
B|-2------1--4/555-|
G|---1--3----------|
D|-----------------|
A|-----------------|
E|-----------------|

Verse

e|-4--3--1--9---|
B|-4--3--1--9---|
G|-6--5--3--11--|
D|-6--5--3--11--|times 2
A|-4--3--1--9---|
E|--------------|
[ Tab from: http://www.guitaretab.com/s/short-stack/192201.html ]
e|--4--444--444--444--|
B|--4--444--444--444--|
G|--6--666--666--666--|slide pick down 5th string
D|--6--666--666--666--|
A|--4--444--444--444--|
E|--------------------|

Chorus

e|--4---6---6---4---|
B|--4---6---6---4---|
G|--6---8---6---4---|
D|--6---8---8---6---|
A|--4---6---8---6---|
E|----------6---4---|


"sway baby sway baby ohhh"
e|-2--4--2--4-|
B|-2--4--2--4-|
G|-2--4--2--4-|
D|-4--6--4--6-|
A|-4--6--4--6-|
E|-2--4--2--4-|

Chorus

e|--4---6---6---4---|
B|--4---6---6---4---|
G|--6---8---6---4---|
D|--6---8---8---6---|
A|--4---6---8---6---|
E|----------6---4---|


solo ending

e|----------------------------------------------------|
B|-2-----1-5-5-5-5-2-5-7-7/9--7/9--7/9--7/9--9-7-9-6--|
G|---1-3----------------------------------------------|
D|----------------------------------------------------|
A|----------------------------------------------------|
E|----------------------------------------------------|
Related for Sway Sway Baby tab