Song name
# A B C D E F G H I J K L M N O P Q R S T U V W X Y Z

Short Stack - Sway Sway Baby tab

This is my first tab and I just taught myself the guitar. I don't how to tab so here it 
Hope theirs no mistakes and it's alright.
Please rate *****/*****.

**TUNING**
Standard EADGBe

**KEY**
S = Strumming
* = Strum fast

VERSE 1:

Reach for the stars, kid. I've been wondering.
Heaven's not to far, kid. We've been tumbling.
Down, down baby, you're so audio. But I'm a gentleman, I'm such a gentleman.
e|--------------------|
B|--------------------|
G|--66--666--66--666--|
D|--66--666--66--666--|
A|--44--444--44--444--|
E|--------------------|

We keep in time, kid. You're so into it.
But if you were mine, kid. We'd be intimate.
Oh, these razors ain't your roses. But I'm a gentleman, I'm such a gentleman.
e|----------------------------------------|
B|----------------------------------------|
G|--66--5--333------------666--5--333-----|
D|--66--5--333--4---------666--5--333--4--|
A|--44--3--111--4---------444--3--111--4--|
E|--------------2--4-6-4---------------2--|


CHORUS:

Sway sway baby, you're so audio.
Kill your boyfriend we could be together.
Sway sway baby tonight.
Maybe tonight you'll write back to my letters home.
e|---------------------------------------|
B|---------------------------------------|
G|--66666666-88888888--------------------|
D|--66666666-88888888-88888888-66666666--|
A|--44444444-66666666-88888888-66666666--|
E|--------------------66666666-44444444--|

We'll never let go.
We'll never let go.
We'll never let.
e|------------------ -----|
B|------------------ 999--|
G|--6--6--6----6-8-10-----|
D|--6--6--6--------- -----|
A|--4--4--4--------- -----|
E|------------------ -----|


VERSE 2:

We're torn apart, kid. Tearing to the beat.
Lovers to the bone, kid. You've said no, no, no, no, no.
e|------------------------------|
B|------------------------------|
G|--6666--5555--3333------------|
D|--6666--5555--3333--4-4-4444--|
A|--4444--3333--1111--4-4-4444--|
E|--------------------2-2-2222--|

These razors ain't your roses. But I'm a gentleman, I'm such a gentleman.

e|---------------------------------------|
B|-----------------------------66665555--|
G|--66666666-55555555-33333333-66665555--|
D|--66666666-55555555-33333333-44443333--|
A|--44444444-33333333-11111111-----------|
E|---------------------------------------|
    ******** ******** ******** ********

e|-----------------------|
B|-----------------------|
G|--6--6666--6666--6666--|
D|--6--6666--6666--6666--|
A|--4--4444--4444--4444--|
E|-----------------------|


CHORUS:

Sway sway baby, you're so audio.
Kill your boyfriend we could be together.
Sway sway baby tonight.
Maybe tonight you'll write back to my letters.
e|---------------------------------------|
B|---------------------------------------|
G|--66666666-88888888--------------------|
D|--66666666-88888888-88888888-66666666--|
A|--44444444-66666666-88888888-66666666--|
E|--------------------66666666-44444444--|

Sway sway baby, you're so audio.
Kill your boyfriend. I'm such a gentleman
Sway sway baby tonight.
Maybe tonight you'll write back to my letters home.
e|---------------------------------------|
B|---------------------------------------|
G|--66666666-88888888--------------------|
D|--66666666-88888888-88888888-66666666--|
A|--44444444-66666666-88888888-66666666--|
E|--------------------66666666-44444444--|


BRIDGE:

e|---------------------------------------|
B|---------------------------------------|
G|---------------------------------------|
D|----3--43----3--43----3--43----44--66--|
A|--44-44--4-33-33--3-11-11--4-----------|
E|-----------------------------22--44----|

Cause I insist this secret liquid. Shared between us.
Just to slip these secrets through our throat. (Oh oh)
Secrets down our throat. (Oh oh)
e|---------------------------------------|
B|---------------------------------------|
G|---------------------------------------|
D|----3--43----3--43----3--43----44--66--|
A|--44-44--4-33-33--3-11-11--4-----------|
E|-----------------------------22--44----|

Yeah, I insist this secret liquid. Shared between us
Just to slip these secrets though our throat. (Oh oh)
Secrets down our when I'll...
e|---------------------------------------|
B|---------------------------------------|
G|---------------------------------------|
D|----3--43----3--43----3--43----44--66--|
A|--44-44--4-33-33--3-11-11--4-----------|
E|-----------------------------22--44----|

...never let you go.
I'm such a gentleman.
e|---------------------------------------|
B|---------------------------------------|
G|---------------------------------------|
D|----3--43----3--43----3--43----44--66--|
A|--44-44--4-33-33--3-11-11--4-----------|
E|-----------------------------22--44----|

And I'll never let you go.
e|---------------------------------------|
B|---------------------------------------|
G|---------------------------------------|
D|----3--43----3--43----3--43----44--66--|
A|--44-44--4-33-33--3-11-11--4-----------|
E|-----------------------------22--44----|

Sway baby, sway baby.
e|-----------|
B|-----------|
G|-----------|
D|--444-666--|
A|--444-666--|
E|--222-444--|

Oh, we'll all fly home.
e|--------------------|
B|--------------------|
G|--------------------|
D|--4--66-88-1010-11--|
A|--4--66-88-1010-11--|
E|--2--44-66-8 8 -9 --|
    S


CHORUS:

Sway sway baby, you're so audio.
Kill your boyfriend we could be together.
Sway sway baby tonight.
Maybe tonight you'll write back to my letters.
e|---------------------------------------|
B|---------------------------------------|
G|--66666666-88888888--------------------|
D|--66666666-88888888-88888888-66666666--|
A|--44444444-66666666-88888888-66666666--|
E|--------------------66666666-44444444--|

Sway sway baby, you're so audio.
Kill your boyfriend. (We can be together.)
Oh, sway sway baby tonight.
Maybe tonight you'll write back to my letters home.
e|---------------------------------------|
B|---------------------------------------|
G|--66666666-----------------------------|
D|--66666666----------88888888-66666666--|
A|--44444444----------88888888-66666666--|
E|--------------------66666666-44444444--|

Oh, we'll never let go.
We'll never let go. (We'll never let go. We'll never let go.)
Yeah, I insist this secret liquid. Shared between us.
Just to slip these secrets though our throat.
WE'LL NEVER LET GO!
e|-------------------------------------------|
B|-------------------------------------------|
G|--6666-8888-----------6666-8888------------|
D|--6666-8888-8888-6666-6666-8888-8888-6666--|
A|--4444-6666-8888-6666-4444-6666-8888-6666--|
E|------------6666-4444-----------6666-4444--|

e|-------- --- ----------------------|
B|-------- --- -----5-7-9999-9-7-5---|
G|--6----- 9-11-99-6--------------6--|
D|---6-8-10--- ----------------------|
A|-------- --- ----------------------|
E|-------- --- ----------------------|
Tap to rate this tab
# A B C D E F G H I J K L M N O P Q R S T U V W X Y Z