Short Stack - Thick As Thieves tab

Hey guys this is my first tab,by changing this you can play the piano part but this is 
guitar introduction.
Some of it may be wrong and to work out the rhythm of the notes listen to the song

Email: randomizer4@hotmail.com

e|--------------------|
b|--------------------|
g|----------------1---|
d|-212-2122--24242-212|
a|4---0----02---------|
e|--------------------|


e|--------------------|
b|--------------------|
g|----------------1---|
d|-212-2122--24242-421|
a|4---0----02---------|
e|--------------------|


Enjoy xx
Tap to rate this tab
 
# A B C D E F G H I J K L M N O P Q R S T U V W X Y Z