Song name
# A B C D E F G H I J K L M N O P Q R S T U V W X Y Z

Short Stack - I Will I Will I Will tab

OK so this is my FIRST ever tab I've tabbed by ear sooo correct me if im wrong, FANKZ!!! 
for those who can read tabs, i'll try put up a chord version!
brooke_gilbert101@hotmail.com

INTRO
E-1-1-1---3-3-3---4-4-4-4-4-4-4-4---------|
A-2-2-2---5-5-5---6-6-6-6-6-6-6-6---------|
D-2-2-2---5-5-5---6-6-6-6-6-6-6-6---------| x2
G-----------------------------------------|
B-----------------------------------------|
E-----------------------------------------|

VERSE 1 and 2 are practically the INTRO but at the end different strummuing patterns.

CHORUS
E-4-4-4-4-4-4-4-4---------------------6-6-6-6-6-6-6-6---------------------|
A-6-6-6-6-6-6-6-6---6-6-6-6-6-6-6-6---8-8-8-8-8-8-8-8---4-4-4-4-4-4-4-4---|
D-6-6-6-6-6-6-6-6---8-8-8-8-8-8-8-8---8-8-8-8-8-8-8-8---6-6-6-6-6-6-6-6---|x2
G-------------------8-8-8-8-8-8-8-8---------------------6-6-6-6-6-6-6-6---|
B-------------------------------------------------------------------------|
E-------------------------------------------------------------------------|

The Bridge is the same as the Chorus.....

End on the first note of the chorus.
Hope this helps!!!!
Tap to rate this tab
 
# A B C D E F G H I J K L M N O P Q R S T U V W X Y Z