Song name
# A B C D E F G H I J K L M N O P Q R S T U V W X Y Z

Short Stack - Rain On Her Parade tab

Intro:
e|---------------------------------------------|
B|---------------------------------------------|
G|7--------------5---------------3-------------|
D|7--------------5---------------3-------------|   X2
A|5--------------3---------------1-------------|
E|---------------------------------------------|


e|----------------------------------------------------|
B|----------------------------------------------------|
G|7--------------5---------------3--------------------|
D|7--------------5---------------3------------3----5--|
A|5--------------3---------------1------------3----5--|
E|--------------------------------------------1----3--|


e|---------------------------------------------|
B|---------------------------------------------|
G|7--------------5---------------3-------------|
D|7--------------5---------------3-------------|   
A|5--------------3---------------1-------------|
E|---------------------------------------------|

Verse 1:
e|---------------------------------------------|
B|---------------------------------------------|
G|---7----7----3----3--------------5----5------|
D|-7--7-7--7-3--3-3--3---3----3--5--5-5--5-----|    
A|5-5--5-5--1-1--1-1---3--3-3--33-3--3-3-------|
E|--------------------1-1--1-1-----------------|

e|---------------------------------------------|
B|---------------------------------------------|
G|---7----5--------7--5---3----3---5-----------|
D|-7--7-5--5---7--7--5--3--3-3--3-5------------|
A|5-5--3-3---7--75--3--1-1--1-1--3-------------|
E|----------5-5--------------------------------|


Chorus:
e|------------111111------------------111111---|
B|------------333333------------------333333---|
G|------222222222222333333------2222222222223--|
D|333333222222------333333333333222222------3--|   
A|333333000000------111111333333000000------1--|
E|111111------------------111111---------------|

Verse 2:
e|-----------------|
B|-----------------|
G|---2-----23--3---|
D|-3--3-3-3---3----|   
A|5-5--3-3---1-----|
E|-----------------|

e|------------------------|
B|------------------------|
G|---2-----23---3----3----|
D|-3--3-3-3---3--3-3--3---|     X2
A|5-5--3-3---1-1--1-1-----|
E|------------------------|

e|------------------------|
B|------------------------|
G|---2-----23---3---------|
D|-3--3-3-3---3--3--------| 
A|5-5--3-3---1-1----------|
E|----------------333555--|

e|-------------------|
B|-------------------|
G|---2-----23--3-3---|
D|-3--3-3-3---3-3----|     
A|5-5--3-3---1-------|
E|-------------------|

e|------------------------|
B|------------------------|
G|/7------555555----------|
D|/7------555555----------|    
A|/5------333333----------|
E|------------------------|


Chorus:
e|------------111111------------------111111-------|
B|------------333333------------------333333-------|
G|------222222222222333333------222222222222333333-|
D|333333222222------333333333333222222------333333-|
A|333333000000------111111333333000000------111111-|
E|111111------------------111111-------------------|


The rest is jsut the chorus, to the end!, havnt figured out the solo yet!
please enjoy =]
Tap to rate this tab
 
# A B C D E F G H I J K L M N O P Q R S T U V W X Y Z