Song name
# A B C D E F G H I J K L M N O P Q R S T U V W X Y Z

Short Stack - Planets tab

Intro
E------14-13-----------14-13----------14-13--------------------|
B--11--------14~~--11--------14~~--11-------14-1413-1314-11-11-|
G--------------------------------------------------------------|
D--------------------------------------------------------------|x2
A--------------------------------------------------------------|
E--------------------------------------------------------------|

Verse
“Sweet heart…”
E-----------------------------------|
B-----------------------------------|
G-----------------------------------|
D-3-3---3---3-3--3--3-3--6666\5555--|x2
A-1-1---16-1-1---16-1-1--4444\3333--|
E--------4--------4-----------------|

Chorus
“What planet are you from?”
E---------------------------------------|
B---------------------------------------|
G-33333333----------6666-5555-33333333--|
D-33333333-44444444-6666-5555-33333333--|x4
A-11111111-44444444-4444-3333-11111111--|
E----------22222222---------------------|

E------14-13-----------14-13----------14-13--------------------|
B--11--------14~~--11--------14~~--11-------14-1413-1314-11-11-|
G--------------------------------------------------------------|
D--------------------------------------------------------------|
A--------------------------------------------------------------|
E--------------------------------------------------------------|

Verse
“Stop now here’s the breakdown…”
E-----------------------------------|
B-----------------------------------|
G-3-3---3---3-3--3--3-3--6666\5555--|
D-3-3---36--3-3--36-3-3--6666\5555--|x2
A-1-1---16--1-1--16-1-1--4444\3333--|
E--------4--------4-----------------|

Chorus
“What planet are you from?”
E---------------------------------------|
B---------------------------------------|
G-33333333----------6666-5555-33333333--|
D-33333333-44444444-6666-5555-33333333--|x3
A-11111111-44444444-4444-3333-11111111--|
E----------22222222---------------------|

E-----------------------------|
B-----------------------------|
G-33333333----------66-55-33--|
D-33333333-44444444-66-55-33--|
A-11111111-44444444-44-33-11--|
E----------22222222-----------|

Bridge (palm muted)
“Sweetheart I’m holding…”
E-------------------------|
B-------------------------|
G-------------------------|
D-3--3--------6--6--5--5--|
A-1--1--6--6--4--4--3--3--|
E-------4--4--------------|

  .  .  .  .  .  .  .  .

E---------------|
B---------------|
G-3--3----5--5--|
D-3--36--65--5--|
A-1--16--63--3--|
E-----4--4------|


E------14-13-----------14-13----------14-13--------------------|
B--11--------14~~--11--------14~~--11-------14-1413-1314-11-11-|
G--------------------------------------------------------------|
D--------------------------------------------------------------|
A--------------------------------------------------------------|
E--------------------------------------------------------------|

Solo
E----------------------------------|
B-----17-20p17h20p17-----17^^------|
G--14----------------14------------|
D----------------------------------|
A----------------------------------|
E----------------------------------|

E----------------------------------|
B--20brbr-201920182013brb\0--------|
G----------------------------------|
D----------------------------------|
A----------------------------------|
E----------------------------------|

Chorus
“What planet are you from?”
E---------------------------------------|
B---------------------------------------|
G-33333333----------6666-5555-33333333--|
D-33333333-44444444-6666-5555-33333333--|x3
A-11111111-44444444-4444-3333-11111111--|
E----------22222222---------------------|

E-----------------------------|
B-----------------------------|
G-33333333----------66-55-33--|
D-33333333-44444444-66-55-33--|
A-11111111-44444444-44-33-11--|
E----------22222222-----------|

End
E-------------------------------|
B-------------------------------|
G-33333333--6666-5555-33333333--|
D-33333333--6666-5555-33333333--|
A-11111111--4444-3333-11111111--|
E-------------------------------|

E--------------------|
B--------------------|
G-33333333--66---55--|
D-33333333--66---55--|
A-11111111--44---33--|
E--------------------|

^  -  Bend string up and hold
~  -  Let the note ring
brb  - Bend release bend (create whammy affect)
p  - Pull off
h  - Hammer on
\  -  Slide down

This is how I play the song. Sounds right but the solo may be a bit off. All rights go 
to Short Stack and their producer. Tabed By Braydle
Tap to rate this tab
 
# A B C D E F G H I J K L M N O P Q R S T U V W X Y Z