Short Stack - Heartbreak Made Me A Killer tab

STANDARD TUNING

Intro
-----------------|
-----------------|
-3---6-------8---|
-3---6---6---8---|
-1---4---6---6---|
---------4-------|
Let all ring*

Verse
-------------------------------------|
-------------------------------------|
-33333333-66666666----------88888888-|
-33333333-66666666-66666666-88888888-|
-11111111-44444444-66666666-66666666-|
-------------------44444444----------|
(ALL MUTED)(2 per beat) When I, when i was a young boy...

Chorus
---------------------|
---------------------|
-3333-6666------8888-|
-3333-6666-6666-8888-|
-1111-4444-6666-6666-|
-----------4444------|
(1 per beat) Heartbreak made me a killer, baby...

for both verse & choruses, when you hear it finish the progression with a deep sound, it 
finishes like this

(for chorus example)

---------------------|
---------------------|
-3333-6666-----------|
-3333-6666-6666-4444-|
-1111-4444-6666-4444-|
-----------4444-2222-|

I havent yet worked out either solo, but i hope somebody can figure that out. :)
Tap to rate this tab
 
# A B C D E F G H I J K L M N O P Q R S T U V W X Y Z