Song name
# A B C D E F G H I J K L M N O P Q R S T U V W X Y Z

Short Stack - Planets tab

Short Stack - Planets

Solo

(Half-step Down)
|---------------------------------------------------------------------|
|---------------------------------------------------------------------|
|---12-11-------------12-11-----------12-11---------------------------|
|-9-------12--9~~---9-------12--9~~-9-------12-12-12-11--11--12-9--9--|
|---------------------------------------------------------------------|
|---------------------------------------------------------------------|

|-------------------------------17-17br17-14---14---14----------------|
|--------------------------------------------17--------17-14----------|
|----------14------------------------------------------------16~~-----|
|-12/14/16----16-14-12---14~~-----------------------------------------|
|---------------------------------------------------------------------|
|---------------------------------------------------------------------|

I've played this solo enough times to know that it's almost perfect if you can get the 
timing right. The other one on here wasn't the best, but I just figured I'd show the one 
I play, which I figured was a little bit easier.

I've tabbed it out half a step down, which turns out to be the way Short Stack play all 
their songs, but this can be transferred to standard if you want to play it that way.
Tap to rate this tab
# A B C D E F G H I J K L M N O P Q R S T U V W X Y Z