Song name
# A B C D E F G H I J K L M N O P Q R S T U V W X Y Z

Short Stack - I Will I Will I Will tab

Verse

E|-------------------------------|
B|-------------------------------|
G|-------------------------------|
D|-3-3-3--5-5-5--6-6-6-6-6-6-6-6-| x10
A|-3-3-3--5-5-5--4-4-4-4-4-4-4-4-|
E|-1-1-1--3-3-3--4-4-4-4-4-4-4-4-|

Chorus

E|--------------------------------------------------------------------|
B|--------------------------------------------------------------------|
G|------------------8-8-8-8-8-8-8-8-------------------6-6-6-6-6-6-6-6-|
D|-6-6-6-6-6-6-6-6--8-8-8-8-8-8-8-8--8-8-8-8-8-8-8-8--6-6-6-6-6-6-6-6-| x2
A|-6-6-6-6-6-6-6-6--6-6-6-6-6-6-6-6--8-8-8-8-8-8-8-8--4-4-4-4-4-4-4-4-|
E|-4-4-4-4-4-4-4-4-------------------6-6-6-6-6-6-6-6------------------|

Repeat Verse and Chorus.

Bridge is the same as the chorus, only palm muted.
Tap to rate this tab
# A B C D E F G H I J K L M N O P Q R S T U V W X Y Z