Song name
# A B C D E F G H I J K L M N O P Q R S T U V W X Y Z

Short Stack - We Dance To A Different Disco Honey tab

Song: We Dance To A Different Disco
Artist: Short Stack
Album: This Is Bat Country
Tuning: Standard. Drop D also sounds good.

Intro
e|-----------------------------------------------------------------------------|
B|-----------------------------------------------------------------------------|
G|-----------------------------------------------------------------------------|
D|--11111111-99999999-44444444-8888-43-----------------------------------------|
A|--11111111-99999999-44444444-8888-43-----------------------------------------|
E|--11111111-99999999-44444444-8888-43-----------------------------------------|

There’s a few harmonics in here too. Play them if you want or you cannot. I do.
e|-18*b-18*b-18*b-17*b--|
B|----------------------|
G|----------------------|
D|----------------------|
A|----------------------|
E|----------------------|

Verse x2
e|----------------------------------------------------------------------------------------|
B|----------------------------------------------------------------------------------------|
G|----------------------------------------------------------------------------------------|
D|-----x2-------x2-------x2---------------------------------------------------------------|
A|--11111111-99999999-44444444-88888888-4444-3333-----------------------------------------|
E|--11111111-99999999-44444444-88888888-4444-3333-----------------------------------------|
    ........ ........ ........ ........ .... ....

Pre-chorus
e|----------------------------------|
B|----------------------------------|
G|----------------------------------|
D|-----------------------------8\1--|
A|--11111111-44444444-99999999-8\1--|
E|--11111111-44444444-99999999-8\1--|
    ........ ........ ........

Chorus x2
e|-----------------------------------------------------------------------------|
B|-----------------------------------------------------------------------------|
G|-----------------------------------------------------------------------------|
D|--11111111-99999999-44444444-8888-4-3----------------------------------------|
A|--11111111-99999999-44444444-8888-4-3----------------------------------------|
E|--11111111-99999999-44444444-8888-4-3----------------------------------------|

Verse x2
e|----------------------------------------------------------------------------------------|
B|----------------------------------------------------------------------------------------|
G|----------------------------------------------------------------------------------------|
D|-----x2-------x2-------x2---------------------------------------------------------------|
A|--11111111-99999999-44444444-88888888-4444-3333-----------------------------------------|
E|--11111111-99999999-44444444-88888888-4444-3333-----------------------------------------|
    ........ ........ ........ ........ .... ....

Those harmonics are in here somewhere too
e|-18*b-18*b-18*b-17*b--|
B|----------------------|
G|----------------------|
D|----------------------|
A|----------------------|
E|----------------------|

Chorus x4
e|-----------------------------------------------------------------------------|
B|-----------------------------------------------------------------------------|
G|-----------------------------------------------------------------------------|
D|--11111111-99999999-44444444-8888-4-3----------------------------------------|
A|--11111111-99999999-44444444-8888-4-3----------------------------------------|
E|--11111111-99999999-44444444-8888-4-3----------------------------------------|

..Rest for a bit.

At 2.03 this kicks in. Play this once.
e|--------------------------------------------------|
B|--------------------------------------------------|
G|------55--------------55---------------5----------|
D|----66---66---------66---66---------66-----6------|
A|-88--------------44--------------88------8---8----|
E|--------------------------------------------------|

Then play this twice.
e|-------------------------------------------------------------|
B|------------------------------------------------=------------|
G|------55--------------55---------------5---------------55----|
D|----66---66---------66---66---------66-----6---------66--66--|
A|-88--------------44--------------88------8---8----44---------|
E|-------------------------------------------------------------|

Rate and comment. Cheers.
Tap to rate this tab
 
# A B C D E F G H I J K L M N O P Q R S T U V W X Y Z