Guitaretab - guitar tabs
Song name
# A B C D E F G H I J K L M N O P Q R S T U V W X Y Z

Short Warning - You Can Say tab

http://www.shortwarning.com/



Standard tuning 
This is from a wicked band u should all buy there record it rooooks!

Intro 1
|---7xx8xx10-----------|
|---8xx8xx8-7xx7h8-----|
|-----------7xx7-7-----|
|----------------------|
|----------------------|
|----------------------|


Intro 2
|---------------------------|
|12-12-13-13-14-------------|
|---------------11-11-11-12-|x4
|9--9--10-10-12-------------|
|---------------9--9--9--10-|
|---------------------------|

Verse
|---|
|---|
|---|
|-2~|
|-2~|
|-0~|


Back to Intro 2 x4 then
Pre-Chorus
|-----------------------------------| x3
|-----------------------------------|
|-5-5-5-5---7-7-7-7-----------------|
|-5-5-5-5-5-7-7-7-7-2-2-2-2-2-2-2-2-|
|-3-3-3-3-5-5-5-5-5-2-2-2-2-2-2-2-2-|
|---------3---------0-0-0-0-0-0-0-0-|
pm                  ................

There is something on the Chords C and D here so u can just hold them or play an arpeggio


Chorus
|---------------------------------|
|---------------------------------|
|---------5-5-5-5---------7-7-7-7-|
|-2-2-2-2-5-5-5-5-5-5-5-5-7-7-7-7-|
|-2-2-2-2-3-3-3-3-5-5-5-5-5-5-5-5-|
|-0-0-0-0---------3-3-3-3---------|


End of Chorus
Pm on E
[ Tab from: http://www.guitaretab.com/s/short-warning/107866.html ]
Verse 2 
Hold E again 
Intro 1
then it goes
        x2 1.                2.
|---------|-----------------|-------------|
|---------|-----------------|-------------|
|---------|-----------------|-5-5-5-7-7-7-|
|-2-2-----|-2-2-2-2-2-2-2-2-|-------------|
|-----5-3/|-2-2-2-2-2-2-2-2-|-3-3-3-5-5-5-|
|---------|-0-0-0-0-0-0-0-0-|-------------|
pm          ...............

All of that bit x2 then intro 2 x4
Then Pre-chorus x3
Then Chorus again

Solo part 1
|---------------------------------------------------------------|
|---------------------------------------------------------------|
|--12^--12^-----14^---14^----12^--12^---------------------------|
|-----9----9/10----10----10\9---9---9---------------------------|
|-------------------------------------99999999-1010101010101010-|
|-------------------------------------77777777-8-8-8-8-8-8-8-8--|


solo part 2 (key change)              x2 1.                   .
|---------------------------------------|--------------------|
|---------------------------------------|---15----15---------|
|--13^--13^------15^---15^-----13^--13^-|-14bu-14bu--14bd-14-|
|----10----10/11----11----11\10--10-----|--------------------|
|---------------------------------------|--------------------|
|---------------------------------------|--------------------|

2.
|--------------------------|
|--------------------------|
|--------------------------|
|--------------------------|
|--9999999-1010101010101010|
|--7777777-8-8-8-8-8-8-8-8-|



then hold E afer solo and do the chorus and then Intro 1 until end