Guitaretab - guitar tabs
Song name
# A B C D E F G H I J K L M N O P Q R S T U V W X Y Z

Shotgun Honeymoon - 13 tab

Artist: Shotgun Honeymoon
Song: 13
Album: Forgone Conclusion Master
Website: http://shotgunhoneymoon.com/
Tabbed by: Don Tago
Email: recebedou@yahoo.com

Tuning: EADGBe (Capo III)

(all tabs relative to capo)

Intro/Verse
    My hand is heavy, and Iím tiredÖ
e|-------2-4-------2-4-------2-4---2-4---2-4---2-4-----|
B|-----------------------------------------------------|
G|-----------------------------------------------------|
D|---2-2-----2-----------2-2------2-----2-----2--------|
A|-------------0-0-----0---------------------------0---|
E|-----------------------------------------------------|

Chorus: (repeat 3x)
   This is not, how its supposeÖ
e|------2-4-------2-4----------------------------|
B|---------------------------2------------2------|
G|----------------------------------4------------|
D|--2-2---- 2-------------------2-----2-----2----|
A|------------2-2------2-0-0------0-----0-----0--|
E|-----------------------------------------------|

Bridge: (repeat 2x)
[ Tab from: http://www.guitaretab.com/s/shotgun-honeymoon/172868.html ]
e|----------------------------------------------------------|
B|----------------------------------------------------------|
G|--------4-----4-----4-----4-----4-----4-----4-----4-------|
D|----4-----4-----4-----4-----4-----4-----4-----4-----4---4-|
A|--2---2-----2-----2-----2-----2-----2-----2-----2-----2---|
E|----------------------------------------------------------|

Lyrics:

Verse1
My hand is heavy
And Iím tired 
ĎCause Iíve been waiting for you 13 hours 
To callÖmy phone

Verse2
Your head is dizzy 
And youíre tired
Youíve been avoiding me for 13 hours
I justÖdonít know

Chorus
This is not how itís suppose to go [[x3]]
What did I do so wrong?

Verse 3
Your head is heavy
And youíre worried
Youíve been avoiding this for 13 years
To fallÖin love

Verse 4:
Iím driving crazy
Because Iím worried
The sirensí leading me where youíre hiding
Alone
Alone

Chorus:
This is not how itís suppose to go [[x3]]
What did I do so wrong?

This is not how itís suppose to go [[x3]]
When are you coming home?
So when are you coming home? [[x3]]
So when are you coming?