Song name
# A B C D E F G H I J K L M N O P Q R S T U V W X Y Z

Shotgun Messiah - Dont Care Bout Nothin tab

Help us improve GuitareTab! Take a short survey!
                         "Dont Care Bout Nothin"


i tried to tab this whole song but they didnt accept the whole thing so ill just tab the intro.

Intro:
----------------------------------------------------------------------------|
----------------------------------------------------------------------------|
----------------------------7/9-(9)-----------------------------------------|
-----7/9-----12\9----7/9----5/7-(7)-----------------------------------------|
-----5/7-----10\7----5/7----------------------------------------------------|
--0-------0-------0-------0-------------------------------------------------|
 p.m.    p.m.   p.m.     p.m. 
----------------------------------------------------------------------------|
----------------------------------------------------------------------------|
----------------------------7/9-(9)-----------------------------------------|
-----7/9----12\9-----7/9----5/7-(7)---9-9-(9)-------------------------------|
-----5/7----10\7-----5/7--------------7-7-(7)-------------------------------|
--0-------0-------0-------0-----------0-0-(0)-------------------------------|
 p.m.    p.m.    p.m.   p.m. 

----------------------------------------------------------------------------|
----------------------------------------------------------------------------|
----------------------------7/9-(9)-----------------------------------------|
-----7/9-----12\9----7/9----5/7-(7)-----------------------------------------|
-----5/7-----10\7----5/7----------------------------------------------------|
--0-------0-------0-------0-------------------------------------------------|
 p.m.    p.m.   p.m.     p.m. 

----------------------------------------------------------------------------|
----------------------------------------------------------------------------|
----------------------------------------------------------------------------|
-----7/9-----12\9----7/9----------------------------------------------------|
-----5/7-----10\7----5/7----///////////////////////// pick slide------------|
--0-------0-------0----------///////////////////////------------------------|
 p.m.    p.m.   p.m.     p.m. 

----------------------------------------------------------------------------|
----------------------------------------------------------------------------|
----------------------------7/9-(9)-----------------------------------------|
-----7/9-----12\9----7/9----5/7-(7)-----------------------------------------|
-----5/7-----10\7----5/7----------------------------------------------------|
--0-------0-------0-------0-------------------------------------------------|
 p.m.    p.m.   p.m.     p.m. 

--------------------------------------------------------------------------|
-------------------------[7]-----[5]-----[3]~~----------------------------|
-----------------------------[5]-----[5]----------------------------------|
-----7/9-----12\9---------------------------------------------------------|
-----5/7-----10\7---------------------------------------------------------|
--0-------0-------0-0-----------------------------------------------------|
 p.m.    p.m.    p.m.   harmonics-----------|  

---------------------------------------------------------------------------|
---------------------------------------------------------------------------|
----------------------------7/9-(9)----------------------------------------|
-----7/9-----12\9----7/9----5/7-(7)----------------------------------------|
-----5/7-----10\7----5/7---------------------------------------------------|
--0-------0-------0-------0------------------------------------------------|
 p.m.    p.m.   p.m.     p.m. 

---------------------------------------------------------------------------|
---------------------------------------------------------------------------|
----------------------------7/9-7------------------------------------------|
-----7/9-----12\9----7/9----5/7-5--7-(7)-----------------------------------|
-----5/7-----10\7----5/7-----------5-(5)-----------------------------------|
--0-------0-------0-------0------------------------------------------------|
 p.m.    p.m.   p.m.     p.m. 

well thats it, thats all im going to do. laters. enjoy. by: Tricky

        
Related for Dont Care Bout Nothin tab