Song name
# A B C D E F G H I J K L M N O P Q R S T U V W X Y Z

Shotgun Messiah - Nervous tab

                            Shotgun Messiah
                               "Nervous"

tabbed by Anival a.k.a Tricky
-------------------------------------------------------------------------------|
-----------7h8p7---------------------------------------------------------------|
----------(7)------9--12--5------------0-----5-5-----7-7-----------------------|
-------------------9--12--5--------0h2---2---5-5-7/9-7-7-----------------------|
-------------------------------3-3---------------------------------------------|
--0--0-0-----------------------------------------------------------------------|
  -  ---
-------------------------------------------------------------------------------|
-----------7h8p7---------------------------------------------------------------|
----------(7)------9--12--(5)--7/9-(9)-----------------------------------------|
-------------------9--12--(5)--7/9-(9)-9\--------------------------------------|
-------------------------------------------------------------------------------|
--0--0-0-----------------------------------------------------------------------|
  -  ---

thats all i have play the intro a couple of times.
Tap to rate this tab
# A B C D E F G H I J K L M N O P Q R S T U V W X Y Z