Song name
# A B C D E F G H I J K L M N O P Q R S T U V W X Y Z

Shotgun Messiah - The Explorer tab

                         The Explorer - outro

This is the Correct outro! Good luck playing it! =)
Standard tuning, E
Tempo = 88
Written by Harry K. Cody

------------------------------------------------------------------------22--|
---------------------------------------------------------------------22-----|
---(0/9)b---------------------------------------------------------21--------|
-----------------------------------------------------------19--19-----------|
----------------------------------------------------------------------------|
----------------------------------------------------------------------------|


---19--15-9----15-17----14-17----14-15---12-15----12-14----11-14----11------|
------------17-------17-------15-------15------13-------12-------12----13-12|
----------------------------------------------------------------------------|
----------------------------------------------------------------------------|
----------------------------------------------------------------------------|
----------------------------------------------------------------------------|


--------------------------12---7-12-----------------------------------------|
-12-13-10-12-7-10-4-7-8-4----8------8-12------------------------------------|
-----------------------------------------9-12-------------------------------|
----------------------------------------------9-14--------------------------|
---------------------------------------------------10-14-7-10---------------|
--------------------------------------------------------------7-12-3-7--0---|


----------------------------------------------------------------------------|
----------------------------------------------------------------------------|
----------------------------------------------------------------------------|
----------------------------------------------------------------------------|
----------------------------------------------------------------------------|
-(0)------------------------------------------------------------------------|

Submittet by: DenimDude
myggfan_88@hotmail.com
Tap to rate this tab
 
# A B C D E F G H I J K L M N O P Q R S T U V W X Y Z