Song name
# A B C D E F G H I J K L M N O P Q R S T U V W X Y Z

Shotgun Rules - Like Helicopters tab

song:Like Helicopters
band:Shotgun Rules
www.shotgunrules.net
One step down
Eb Bb Gb Db Ab Db
I doubt very much that this is 100%
Intro:
(00:00)
Eb---------------------------------|
Bb---------------------------------|
Gb---9-6-------------9-6-----------|
Db------6-6h7-6h7--------6-6h7-6h7-|
Ab-00--------------44--------------|
Db-00--------------44--------------|

Verse:
(00:05)
"I never wanted..."
Eb--------------|
Bb--------------|
Gb--------------|
Db--------------|
Ab-44444-000000-|
Db-44444-000000-|

(00:25)
Eb-----------------------------------------------------------|
Bb-----------------------------------------------------------|
Gb-----------------------------------------------------------|
Db--------------------------------2-4-5--0-4-5--2-4-5-0-4-5--|
Ab-10-7-2--10-7-5--10-7-2--10-7-5----------------------------|
Db-----------------------------------------------------------|

(00:45)
No idea what he's doing there.
(00:56)
Eb-----|
Bb-----|
Gb-5-9-|
Db-x-x-|
Ab-3-7-|
Db-----|
(1:07)
...Again, no idea.
(1:26)
Eb---------------------------------------------------|
Bb---------------------------------------------------|
Gb---------------------------------------------------|
Db-55-77-55-44--5-5-4-5/7-5-4-55-4-5/7-9-7-/10-9-7-5-|
Ab---------------------------------------------------|
Db---------------------------------------------------|

(1:49)
Eb---------------------------------|
Bb---------------------------------|
Gb---------------------------------|
Db--10-10-10-9-9-9-7-7-7-9-9-9-9-9-|
Ab---------------------------------|
Db---------------------------------|
PM: _  _  _ _ _ _ _ _ _ _ _ 

(1:51)
Eb----------------|
Bb----------------|
Gb----------------|
Db-5555-4-5-7-5-4-|
Ab----------------|
Db----------------|

 THE PATTERN OF SWITCHING FROM THOSE TWO PARTS GOES ON UNTIL 2:17
(2:18)
Eb-------------------------------------------------------------|
Bb-------------------------------------------------------------|
Gb---4---------------4--------------4-------------4------------|
Db--5-5-4p0-4p0-4---5-5-4p0-4p0-4----5-4-444-4h5---5-4-444-4h5-| X2
Ab-3-------------3-3-------------3-3-------------3-------------|
Db-------------------------------------------------------------|

(2:39)
Eb--------------|
Bb--------------|
Gb---4----------|
Db--5-5---------|
Ab-3---3-2220h2-|
Db--------------|

back to the above pattern(2:18)

(2:51)    (2:55)   (2:57)   (3:00)
Eb-----| Eb-----|  Eb-----| Eb----------|
Bb-----| Bb-----|  Bb-----| Bb----------|
Gb-----| Gb-777-|  Gb-666-| Gb-11-11-11-|
Db-999-| Db-555-|  Db-444-| Db-9--9--9--|
Ab-777-| Ab-----|  Ab-----| Ab----------|
Db-----| Db-----|  Db-----| Db----------|

(3:02)
Eb---------------------------------------------------------------------|
Bb---------------------------------------------------------------------|
Gb-----------------777-7-7-777-7-7-666-6-6-666-6-6-11-11-11--11--11--11|
Db-999-9-9-999-9-9-555-5-5-555-5-5-444-4-4-444-4-4--9--9--9---9---9---9|
Ab-777-7-7-777-7-7-----------------------------------------------------|
Db---------------------------------------------------------------------|

(3:23)
the lead comes in here with this:
Eb-----------------------------------|
Bb-0-5-7-0-5-7-0-5-7-0-5-7-0-5-7-8-7-|
Gb-----------------------------------|
Db-----------------------------------|
Ab-----------------------------------|
Db-----------------------------------|


That's it. 
if you have anything to say, email me
art_vandelay_1@hotmail.com
Tap to rate this tab
# A B C D E F G H I J K L M N O P Q R S T U V W X Y Z