Guitaretab - guitar tabs
Song name
# A B C D E F G H I J K L M N O P Q R S T U V W X Y Z

Shout Out Louds - Tonight I Have To Leave It tab

Artist: Shout Out Louds
Song: Tonight I Have To Leave It
Album: Our Ill Wills (2007)


Tabbed by Coronas

     EADGBe
E    022100
A    x02220
C#m  x46654 

The strumming is pretty easy, so you can figure it out by yourselves.


Intro (piano riff):

  E                          A
e|----12--11----------------|--------------------------|
B|--------------12--9---9---|---9--12------------------|
G|--------------------------|-------------11---9--9----|
D|--------------------------|--------------------------|
A|--------------------------|--------------------------|
E|--------------------------|--------------------------|

  E                          A
e|--------------------------|---------------------------|
B|--------------------------|---9----9----9-------------|
G|----9----11----9----11----|-----------------11----9---|
D|--------------------------|---------------------------|
A|--------------------------|---------------------------|
E|--------------------------|---------------------------|

Verse:
            E                    A
Don't come up to me and say you like it
                            E                          A
It's better if you say you hate it, that's the truth exactly
              E                            A
When we go out dancing I don't want to be bothered,
                   E                  A
I just want to be bothered with real love

[ Tab from: http://www.guitaretab.com/s/shout-out-louds/101973.html ]
Pre-chorus:
      E                     C#m
So I heard it's no good to run,
                       E                   C#m
But it feels so much better now that it's done
                       A
And tonight I have to leave it

                       E         A
And tonight I have to leave it

E     A     (3x)

Verse 2:
          E                     A      
So I've heard you know how to write it
          E                                    A
Does it mean you're good at putting things on paper
          E                   A
Rumours say that you're very sorry
                   E               A
Oh no you're not sorry, no you're not


Pre-chorus:
      E                     C#m
So I heard it's no good to run,
                      E                    C#m
But it feels so much better now that it's done
                       A
And tonight I have to leave it


Chorus:
                       E
And tonight I have to leave it
A                      E
And tonight I have to leave it
A                   E
And tonight I have to
A                      E        A
Yes tonight I have to leave it


E     A     E     A

Bridge:
E           A
Give love, give love
               E
Why won't you give love?
 A
Give love

               E 
Why don't you give love?
            A
Give love, give love

               E 
Why won't you give love?
            A
Give love, give love

                      A
Yes tonight I have to


Chorus:
                       E
And tonight I have to leave it
A                      E
And tonight I have to leave it
A                   E
And tonight I have to
A                      E        A
Yes tonight I have to leave it

E     A     (8x)
Related for Tonight I Have To Leave It tab