Song name
# A B C D E F G H I J K L M N O P Q R S T U V W X Y Z

Shout Out Louds - Wish I Was Dead tab

posted by: Naton

Shout out louds - Wish i was dead

Intro and verse

Tuning: EADGBE (standard)

Intro

-----------------------------------------|
-----------------------------------------|
-----------------------------------------|
-----------------------------------------|
-9-9-11-11-9-9-11-11-9-9-11-11-9-9-11-11-|
-0-0-0--0--0-0-0--0--0-0-0--0--0-0-0--0--|

---------------------------------|
---------------------------------|
---------------------------------|
---------------------------------|
-7-7-7-7-7-7-7-7-7-7-7-7-7-7-7-7-|
-5-5-5-5-5-5-5-5-5-5-5-5-5-5-5-5-|
played twice before they start singing


"I want to hear drums          and my"
-----------------------------------------|
-----------------------------------------|
-----------------------------------------|
-----------------------------------------|
-9-9-11-11-9-9-11-11-9-9-11-11-9-9-11-11-|
-0-0-0--0--0-0-0--0--0-0-0--0--0-0-0--0--|


hearts a drum
---------------------------------|
---------------------------------|
---------------------------------|
---------------------------------|
-7-7-7-7-7-7-7-7-7-7-7-7-7-7-7-7-|
-5-5-5-5-5-5-5-5-5-5-5-5-5-5-5-5-|

and its the same thing through all the verses
Tap to rate this tab
# A B C D E F G H I J K L M N O P Q R S T U V W X Y Z