Song name
# A B C D E F G H I J K L M N O P Q R S T U V W X Y Z

Shout Out Louds - Fall Hard tab

Off the upcoming album "Work"
This is what I have so far. I'll update it when I figure anymore out.


Intro:
E|--------------8-7~------------8-7~------------8-7~---------------------|
B|-----------------------------------------------------------------------|
G|--7-9-7-9-7-9-----7-9-7-9-7-9-----7-9-7-9-7-9--------------------------|
D|-----------------------------------------------------------------------|
A|-----------------------------------------------------------------------|
E|-----------------------------------------------------------------------|

Verses: (palm muted)
E|-----------------------------------------------------------------------|
B|-----------------------------------------------------------------------|
G|--9 x a bunch---- 7 x a lot at chord change----------------------------|
D|-----------------------------------------------------------------------|
A|-----------------------------------------------------------------------|
E|-----------------------------------------------------------------------|

Pre Chorus:
E|----8\-----------------------------------------------------------------|
B|--------8-8-8-8-8-8-8-8-8-8-8-8-8-8-8-8--------------------------------|
G|--------9-9-9-9-9-9-9-9-9-9-9-9-9-9-9-9--------------------------------|
D|-----------------------------------------------------------------------|
A|-----------------------------------------------------------------------|
E|-----------------------------------------------------------------------|

Chorus:
E|--------------------10-12-10----10-------------------------------------|
B|---12--10--------------------12----10-12-----------------12-11---------|
G|------------------------------------------11-11-11-11----13-12---------|
D|-----------------------------------------------------------------------|
A|-----------------------------------------------------------------------|
E|-----------------------------------------------------------------------|
Tap to rate this tab
 
# A B C D E F G H I J K L M N O P Q R S T U V W X Y Z