Shout Out Louds - Walls tab

"Walls" by The Shout Out Louds
Album: Work 2010
Tabbed by Nick den Engelsman

I liked the song so much and couldn't find the tabs anywhere.
So i gave it a try. I know it's far far far from perfect.

Guitar 1 Played almost the whole song
Chord1		Chord2
E 10(muted)	E 5
B 10(muted)	B 5
G 11		G 4
D 12		D 5
A 12		A 5
E 10			E 3

Played after Verse1
E ----------------------------------------------------------------|
B ----------------------------------------------------------------|
G ----------------------------------------------------------------| Play this
D ----------------------------------------------------------------| 2 X
A -------------------5----5---5-----------------------------------|
E --------7---7---5--------------5---7-----7----5----7-----3------|

Played together with the piano part after Verse2
E ----------------------------------------------------------------|
B ----------------------------------------------------------------|
G ----------------------------------------------------------------|
D ------------------------7---------------------------------------|
A --------9---9---7---7-------9---7---7-----7---9---9-------------|
E ----------------------------------------------------------------|

E ----------------------------------------------------------------|
B ----------------------------------------------------------------|
G ----------------------------------------------------------------| Play this
D -----------------7----------------------------------------------| 2 X
A -9---9---7---7-------9---7---7-----7---9---7--------------------|
E -------------------------------------------------10------7------|
Tap to rate this tab
 
# A B C D E F G H I J K L M N O P Q R S T U V W X Y Z