Guitaretab - guitar tabs
Song name
# A B C D E F G H I J K L M N O P Q R S T U V W X Y Z

Shout Out Louds - A Track And A Train tab

-------------------------------------------------------------------------------
			     A Track and a Train - Shout Out Louds
-------------------------------------------------------------------------------
Tabbed by: Matty C
Email: Happyquakiduck@msn.com

Tuning: Standard

Bells transcribed for guitar
e|---------------------------------------------------------------------------|
B|-13------------------------------------------------------------------------|
G|----12-14-9----------------------------------------------------------------|
D|---------------------------------------------------------------------------|
A|---------------------------------------------------------------------------|
E|---------------------------------------------------------------------------|


*****GUITAR 1*****

Intro

C, F, C, F


    C				F
Everyone's got someone, I got none
    C				F
Everyone's got someone, I got no one
       C	    F
And I try, to find out
         C	      F            G
What to do, with my life

C             F        C	  
But here it comes at last
         F           Am          F  
And my heart beats faster than sane
  Am              F           C
Faster than the train in my mind

    C                           F
Everyone can see me, when I'm numb
  C                              F
Tell me what I look like when I stumble
       C            F
But I try, to find out
        C            F           G
What I do, to your life

C              F        C
But here it comes at last
         F           Am          F
And my heart beats faster than sane
  Am              F           C
Faster than the train in my mind
        C
In my mind

C, F, C, F X2 then

2:30-2:50
e|--------------------------------------------------------------------------------------|
B|--------------------------------------------------------------------------------------|
G|--------------------------------------------------------------------------------------|
D|-2---0---0---2/3--------------------2---0---0---2/3-----------------------------------|x
A|---3---3---3-----3--------------------3---3---3-----3---------------------------------|
E|-------------------3-1-3-1-3-1-3-1--------------------3-1-3-1-3-1-3-1-3-3-3-1-1-0-0---|
   

C, F, C, F X1


       C            F
But I try, to find out
         C            F          G
What to do, with my life

C             F        C
But here it comes at last
         F           Am          F
And my heart beats faster than sane
  Am              F           C
Faster than the train in my mind
          F        C
Here it comes at last
         F           Am         F
And my heart beats faster than sane
   C              F          C          F
Faster than the train in my mind
        C        F
In my mind
       Am        F
In my mind
       Am        F
In my mind

C, F, C, F
Am, F, Am, F
End on C



*****GUITAR 2*****
[ Tab from: http://www.guitaretab.com/s/shout-out-louds/62341.html ]
Intro - 0:11-0:23
e|------------------------------------------------------------------------|
B|------------------------------------------------------------------------|
G|--4444---4444---4444--4444----------------------------------------------|
D|------3------2------3---------------------------------------------------|
A|------------------------------------------------------------------------|
E|------------------------------------------------------------------------|

Verse  Start at 0:38-0:57   Then again at  1:32-1:51
e|----------------------------------------------------------------------------------|
B|----------------------------------------------------------------------------------|
G|----------------------------------------------------------------------------------|
D|-2---0---0---2--------------------2---0---0---2-----------------------------------|
A|---3---3---3---3--------------------3---3---3---3---------------------------------|
E|------------------3-1-3-1-3-1-3-1-----------------3-1-3-1-3-1-3-1-3-3-3-1-1-0-0---|


Bridge  2:18-2:45
e|------------------------------------------------------------------------|
B|------------------------------------------------------------------------|
G|--4444---4444---4444--4444/5555/7777\5555\4444/5555/7777\5555\4444------|
D|------3------2------3---------------------------------------------------|
A|------------------------------------------------------------------------|
E|------------------------------------------------------------------------|



2:50-3:04  Keyboard Riff      Put some reverb on this, it'll sound fine
e|------------------------------------------------------------------------|
B|--13-------13-------13-------13-----------------------------------------|
G|-----12-------12-------12-------12--------------------------------------|
D|--------14-------14-------14-------14-----------------------------------|
A|------------------------------------------------------------------------|
E|------------------------------------------------------------------------|

3:20-3:24
e|------------------------------------------------------------------------|
B|------------------------------------------------------------------------|
G|------------------------------------------------------------------------|
D|------------------------------------------------------------------------|
A|------------------------------------------------------------------------|
E|-3-3-3-3-1-1-1-1-0-0-0-0------------------------------------------------|


Bells at 4:25
e|------------------------------------------------------------------------|
B|--13-12-13~-------------------------------------------------------------|
G|------------------------------------------------------------------------|
D|------------------------------------------------------------------------|
A|------------------------------------------------------------------------|
E|------------------------------------------------------------------------|


Yeshh, well that's every riff including the bells and a bit of the keyboard.
It put the starting time for all the riffs, the chord changes should be obvious
Guitar 2 is slightly distorted, but not too much
I hope you enjoy this tab, it took me a bit longer than my other tabs
I also put in a Chords Used box for all you newbies out there :)

Questions, comments, compliments, or corrections send to Happyquakiduck@msn.com
Matty C <3


_____________
Chords Used  |
             |
C   x32010   |
F   x33211   |
Am  x02210   |
G   320033   |
_____________|



| /  slide up
| \  slide down
| h  hammer-on
| p  pull-off
| ~  vibrato
| +  harmonic
| x  Mute note
=================================================================
Related for A Track And A Train tab