Song name
# A B C D E F G H I J K L M N O P Q R S T U V W X Y Z

Shout Out Louds - Comeback tab

Shout out Louds - The Comeback

tabbed by response
greets to Mr. RVB and thx for help


 This is played during the whole song
      
     C    F    Am   G
 e|--8----8----5----3----|
 B|--8----10---5----3----|
 G|--9----10---5----4----|
 D|--10---10---7----5----|
 A|--10---8----7----5----|
 E|--8----8----5----3----|


 Intro/Chorus
 e|--------------------------------------------------|
 B|--------------------------------------------------|
 G|--------------------------------------------------|
 D|-------------------------------------10-10---9-9--|
 A|-------------7-7---10-10---8-8-8-8----------------|
 E|---8-8-8-8----------------------------------------|



 Solo
 e|------------------------------------------------------------------|
 B|------------------------------------------------------------------|
 G|--12b14r12--10-9--10-9~-------------------------------------------| x2
 D|-----------------------10-10/12-10--12-10--10-12b13r12-12-10-10---|
 A|------------------------------------------------------------------|
 E|------------------------------------------------------------------|

  Tremolo Picking
e|-----------------------------------------------------------------------------------|
B|-----------------------------------------------------------------------------------|
G|-------------9---------------9-----------------------------------------------------|
D|-0-2-2-2-2/10----0-2-2-2-2/10-----0-2-2-2-2/10----2-2-2-2/12---12-12-12-12-12/10-9-|
A|-----------------------------------------------------------------------------------|
E|-----------------------------------------------------------------------------------|
Tap to rate this tab
# A B C D E F G H I J K L M N O P Q R S T U V W X Y Z