Guitaretab - guitar tabs
Song name
# A B C D E F G H I J K L M N O P Q R S T U V W X Y Z

Shout Out Louds - Hurry Up Lets Go tab

----------------------------------------------------------------------------
			     Hurry Up Let's Go - Shout Out Louds
----------------------------------------------------------------------------
Tabbed by: Matty C	
Email: Happyquakiduck@msn.com

Tuning: Standard EADGBE

Eight claps and then

*****Guitar 1***** Treble and gain

Intro/Chorus

e|--8--8---8--8--7-7-7-7---------------------------------------------|
B|--8--8---8--8--8-8-8-8---10-10-10-10-10-10-10-10-------------------|
G|-(12-12-12-12)(9-9-9-9)--10-10-10-10-10-10-10-10-------------------|
D|-------------------------10-10-10-10-10-10-10-10-------------------|
A|-------------------------------------------------------------------|
E|-------------------------------------------------------------------|

Verse
          C           Cmaj7       F
e|-------------------------------------------------------------------|
B|-------------------------------------------------------------------|
G|-5555555555555555--44444444----------------------------------------|
D|-5555555555555555--55555555--33333333------------------------------|
A|-3333333333333333--33333333--33333333------------------------------|
E|-----------------------------11111111------------------------------|
[ Tab from: http://www.guitaretab.com/s/shout-out-louds/62828.html ]
*****Guitar 2***** Slight distortion

Play Guitar 1's verse for the intro and chorus

Verse    It's very hard to hear, but it's there.

    C       Cmaj7     F
e|--0---------0-------1----------------------------------------------|
B|--1---------0-------1----------------------------------------------|
G|--0---------0-------2----------------------------------------------|
D|--2---------2-------3----------------------------------------------|
A|--3---------3-------3----------------------------------------------|
E|--------------------1----------------------------------------------|


Bridge
    C         G       F
e|--0---------3-------1----------------------------------------------|
B|--1---------0-------1----------------------------------------------|
G|--0---------0-------2----------------------------------------------|
D|--2---------0-------3----------------------------------------------|
A|--3---------2-------3----------------------------------------------|
E|------------3-------1----------------------------------------------|

Both guitars end on C


One of the easiest Shout Out Loud songs

Enjoy, it's a great song

Questions, comments, compliments, or corrections go to Happyquakiduck@msn.com

This tab is dedicated to everyone who has never had anything dedicated to them.

Matty C <3
Related for Hurry Up Lets Go tab