Guitaretab - guitar tabs
Song name
# A B C D E F G H I J K L M N O P Q R S T U V W X Y Z

Shout Out Louds - Sound Is The Word tab

--------------------------------------------------------------------------
			     Sound is the Word - Shout Out Louds
--------------------------------------------------------------------------
Tabbed by: Matty C
Email: Happyquakiduck@msn.com

Tuning: Standard EADGBE

Intro
e|---5---------------------------------------------------------------------|
B|---7---------------------------------------------------------------------|
G|---7---------------------------------------------------------------------|
D|---7---------------------------------------------------------------------|
A|-------------------------------------------------------------------------|
E|-------------------------------------------------------------------------|

e|-------------------------------------------------------------------------|
B|-------------------------------------------------------------------------|
G|--6-6-6-6-7-7-7-7--4-4-4-4-2-2-2-2---------------------------------------|
D|--7-7-7-7-7-7-7-7--0-0-0-0-0-0-0-0----X2---------------------------------|
A|--4-4-4-4-5-5-5-5--------------------------------------------------------|
E|-------------------------------------------------------------------------|
[ Tab from: http://www.guitaretab.com/s/shout-out-louds/63226.html ]
Verse
e|--5----------------------------------------------------------------------|
B|--7----------------------------------------------------------------------|
G|--7----------------4-4-4-4-2-2-2-2---------------------------------------|
D|--7----------------0-0-0-0-0-0-0-0---------------------------------------|
A|-------------------------------------------------------------------------|
E|-------------------------------------------------------------------------|

Chorus
e|-------------------------------------------------------------------------|
B|-------------------------------------------------------------------------|
G|--11-14-12-11h12p11-14-12-11--11-14-12-11h12p11-14-12-11-----------------|
D|-------------------------------------------------------------------------|
A|-------------------------------------------------------------------------|
E|-------------------------------------------------------------------------|


The other guitar constantly plays the open D string through the verse
Full treble
e|-------------------------------------------------------------------------|
B|-------------------------------------------------------------------------|
G|-------------------------------------------------------------------------|
D|-0000000000000000000000000000000000000000--------------------------------|
A|-------------------------------------------------------------------------|
E|-------------------------------------------------------------------------|


The break is just a giant improv section so have fun with it!

Questions, comments, compliments, or corrections go to Happyquakiduck@msn.com



| /  slide up
| \  slide down
| h  hammer-on
| p  pull-off
| ~  vibrato
| +  harmonic
| x  Mute note
============================================================================
Related for Sound Is The Word tab