Guitaretab - guitar tabs
Song name
# A B C D E F G H I J K L M N O P Q R S T U V W X Y Z

Shout Out Louds - 100 Degrees tab

------------------------------------------------------------------------------
     100 Degrees - Shout Out Louds
----------------------------------------------------------------------------------------------------|
Tabbed by: Brad Bolman
Email: Mageball24@kc.rr.com

Tuning: standard

Author's Note: I'm really sorry, when I originally uploaded this tab, I uploaded another
had done, and hence the low ratings. If you would be kind, if this tab helps you at
give it a rating, so that we can give other users a better idea of how good this is. I 
a good deal of time working on this tab, and I think it's mostly right. You’ll have to
to the song to get the strumming patterns down.

INTRO:

Played on the trumpet I think, but here’s the guitar version:

e|------------------------------------------------------------------------------------|
B|–~15--15-15-15-15-13-12-13-12-8-~8-----15-15-15-15-13-12-13-~12---------------------|
G|------------------------------------------------------------------------------------|
D|------------------------------------------------------------------------------------|
A|------------------------------------------------------------------------------------|
E|------------------------------------------------------------------------------------|

e|-------------------------------------------------------------------------------------|
B|–15-15-15-15-13-12-13-15-13-12-13-15-13-12-8-~8--------------------------------------|
G|-------------------------------------------------------------------------------------|
D|-------------------------------------------------------------------------------------|
A|-------------------------------------------------------------------------------------|
E|-------------------------------------------------------------------------------------|

Guitar: (I’m not sure on how many strums each gets, but you can play it by ear
twice)

e|------------------------------------------------|
B|------------------------------------------------|
G|------------------------------------------------|
D|-5-------7-------10-------5---------------------|
A|-5-(x8)--7-(x8)–-10-(x8)–-5-(x8)----------------|
E|-3-------5-------8--------3---------------------|

VERSE: (the lyrics aren’t in rhythm with the tab, they’re just there as a guideline)

e|---------------------------------------------------------------------------|
B|---------------------------------------------------------------------------|
G|-0-(just keep playing it until the second honestly-------------------------|
D|---------------------------------------------------------------------------|
A|---------------------------------------------------------------------------|
E|---------------------------------------------------------------------------|
   Who’s next, it’s gonna be, it’s gonna be trouble. And tonight
telling       you honestly yes, honestly.
e|--------------------------------------------------------------------------------------|
B|--------------------------------------------------------------------------------------|
G|--------------------------------------------------------------------------------------|
D|-5-------7-------10-------5--------7-------10-------5---------------------------------|
A|-5-(x8)--7-(x8)--10-(x8)–-5-(x16)–-7-(x8)–-10-(x8)–-5-(x8)----------------------------|
E|-3-------5-------8--------3--------5-------8--------3---------------------------------|
   By the time you get on the bus, love is no more, and you turn your head         away
everything you love and adore.


INTRO:

Played on the trumpet I think, but here’s the guitar version:

e|------------------------------------------------------------------------------------|
B|–~15--15-15-15-15-13-12-13-12-8-~8-----15-15-15-15-13-12-13-~12---------------------|
G|------------------------------------------------------------------------------------|
D|------------------------------------------------------------------------------------|
A|------------------------------------------------------------------------------------|
E|------------------------------------------------------------------------------------|

e|-------------------------------------------------------------------------------------|
B|–15-15-15-15-13-12-13-15-13-12-13-15-13-12-8-~8--------------------------------------|
G|-------------------------------------------------------------------------------------|
D|-------------------------------------------------------------------------------------|
A|-------------------------------------------------------------------------------------|
E|-------------------------------------------------------------------------------------|

Guitar: (I’m not sure on how many strums each gets, but you can play it by ear
twice)

e|------------------------------------------------|
B|------------------------------------------------|
G|------------------------------------------------|
D|-5-------7-------10-------5---------------------|
A|-5-(x8)--7-(x8)–-10-(x8)–-5-(x8)----------------|
E|-3-------5-------8--------3---------------------|


SECOND VERSE:

Guitar: (The lyrics are not in rhythm with the tab)

(x2)
e|---------------------------------------------------------------------|
B|–8--15–-8-10--15–-10-8--15–-8--10/12\10-8----------------------------|
G|---------------------------------------------------------------------|
D|---------------------------------------------------------------------|
A|---------------------------------------------------------------------|
E|---------------------------------------------------------------------|
   I am always right yes I am always right, when I saw your reflection in the
I knew it would be tonight.

(x2)
e|---------------------------------------------------------|
B|-12–-15–-12—-10–10-10-12-10-8----------------------------|
G|---------------------------------------------------------|
D|---------------------------------------------------------|
A|---------------------------------------------------------|
E|---------------------------------------------------------|
   And I’m so happy oh so happy, yet again, I’m always am. And I can’t
       the tears in my eyes from the night we never had


PRE CHORUS:

e|-------------------------------------------------------------------------------------|
B|–10-10-10-10-10-10-10-10/20----------------------------------------------------------|
G|-------------------------------------------------------------------------------------|
D|-------------------------------------------------------------------------------------|
A|-------------------------------------------------------------------------------------|
E|-------------------------------------------------------------------------------------|

CHORUS:
[ Tab from: http://www.guitaretab.com/s/shout-out-louds/70307.html ]
(x4)
e|-----------------------------------------------------|
B|–8-10-12-8-10-12-12-12–-8-10-12--8-~5----------------|
G|-----------------------------------------------------|
D|-----------------------------------------------------|
A|-----------------------------------------------------|
E|-----------------------------------------------------|
       Over the seas . . .  Gonna be at least 100 degrees.

INTRO:

e|---------------------------------------------------------------------------|
B|---------------------------------------------------------------------------|
G|-0-(just keep playing it for a while)--------------------------------------|
D|---------------------------------------------------------------------------|
A|---------------------------------------------------------------------------|
E|---------------------------------------------------------------------------|

Played on the trumpet I think, but here’s the guitar version:

e|------------------------------------------------------------------------------------|
B|–~15--15-15-15-15-13-12-13-12-8-~8-----15-15-15-15-13-12-13-~12---------------------|
G|------------------------------------------------------------------------------------|
D|------------------------------------------------------------------------------------|
A|------------------------------------------------------------------------------------|
E|------------------------------------------------------------------------------------|

e|-------------------------------------------------------------------------------------|
B|–15-15-15-15-13-12-13-15-13-12-13-15-13-12-8-~8--------------------------------------|
G|-------------------------------------------------------------------------------------|
D|-------------------------------------------------------------------------------------|
A|-------------------------------------------------------------------------------------|
E|-------------------------------------------------------------------------------------|

Guitar: (I’m not sure on how many strums each gets, but you can play it by ear
twice)

e|------------------------------------------------|
B|------------------------------------------------|
G|------------------------------------------------|
D|-5-------7-------10-------5---------------------|
A|-5-(x8)--7-(x8)–-10-(x8)–-5-(x8)----------------|
E|-3-------5-------8--------3---------------------|


THIRD VERSE:

Guitar: (The lyrics are not in rhythm with the tab)

(x2)
e|---------------------------------------------------------------------|
B|–8--15–-8-10--15–-10-8--15–-8--10/12\10-8----------------------------|
G|---------------------------------------------------------------------|
D|---------------------------------------------------------------------|
A|---------------------------------------------------------------------|
E|---------------------------------------------------------------------|
   I know everything yes I know everything, When I saw you behind the corner you asked.
I saw everything

(x2)
e|---------------------------------------------------------|
B|-12–-15–-12—-10–10-10-12-10-8----------------------------|
G|---------------------------------------------------------|
D|---------------------------------------------------------|
A|---------------------------------------------------------|
E|---------------------------------------------------------|
   And I’m so happy oh so happy, yet again, I’m always am. And I can’t
       the tears in my eyes from the night we never had


PRE CHORUS:

e|-------------------------------------------------------------------------------------|
B|–10-10-10-10-10-10-10-10/20----------------------------------------------------------|
G|-------------------------------------------------------------------------------------|
D|-------------------------------------------------------------------------------------|
A|-------------------------------------------------------------------------------------|
E|-------------------------------------------------------------------------------------|

CHORUS:

(x4)
e|-----------------------------------------------------|
B|–8-10-12-8-10-12-12-12–-8-10-12--8-~5----------------|
G|-----------------------------------------------------|
D|-----------------------------------------------------|
A|-----------------------------------------------------|
E|-----------------------------------------------------|
       Over the seas . . .  Gonna be at least 100 degrees.

BRIDGE THING:

(x4)
e|---------------------------------------------------------------------|
B|–8--15–-8-10--15–-10-8--15–-8--10/12\10-8----------------------------|
G|---------------------------------------------------------------------|
D|---------------------------------------------------------------------|
A|---------------------------------------------------------------------|
E|---------------------------------------------------------------------|

On the second playing of the above riff play this little trumpet bit again   (x2)

e|------------------------------------------------------------------------------------|
B|–~15--15-15-15-15-13-12-13-12-8-~8-----15-15-15-15-13-12-13-~12---------------------|
G|------------------------------------------------------------------------------------|
D|------------------------------------------------------------------------------------|
A|------------------------------------------------------------------------------------|
E|------------------------------------------------------------------------------------|

e|-------------------------------------------------------------------------------------|
B|–15-15-15-15-13-12-13-15-13-12-13-15-13-12-8-~8--------------------------------------|
G|-------------------------------------------------------------------------------------|
D|-------------------------------------------------------------------------------------|
A|-------------------------------------------------------------------------------------|
E|-------------------------------------------------------------------------------------|

After the you play the trumpet part for the first time, the above bridge drops out and
powerchords get played lightly with the trumpet part.

e|------------------------------------------------|
B|------------------------------------------------|
G|------------------------------------------------|
D|-5-------7-------10-------5---------------------|
A|-5-(x8)--7-(x8)–-10-(x8)–-5-(x8)----------------|
E|-3-------5-------8--------3---------------------|

Then back to CHORUS:

(x4)
e|-----------------------------------------------------|
B|–8-10-12-8-10-12-12-12–-8-10-12--8-~5----------------|
G|-----------------------------------------------------|
D|-----------------------------------------------------|
A|-----------------------------------------------------|
E|-----------------------------------------------------|
       Over the seas . . .  Gonna be at least 100 degrees.

| /  slide up
| \  slide down
| h  hammer-on
| p  pull-off
| ~  vibrato
| +  harmonic
| x  Mute note
==============================================================================
Related for 100 Degrees tab