Guitaretab - guitar tabs
Song name
# A B C D E F G H I J K L M N O P Q R S T U V W X Y Z

Showbread - The Vulture tab

The Vulture

This is my first tab so if I get something wrong please notify.

/  slide up
\  slide down
p  pull-off
b  bend
r  release bend
v  vibrato
h  hammer on
d  Don't let the bend release. Go straight to the next note




2:02
e[-------------------------------------------------]
b[-5555------5555-------------------------55555----]
g[-b7777-5-5-b7777-5-7-------5-7-b7-5-5-7-b88888---]
d[--------7---------------5-7----------------------]
a[---------------------5-7-------------------------]
e[-------------------------------------------------]
[ Tab from: http://www.guitaretab.com/s/showbread/109123.html ]
e[-------------------------------------------------]
b[------22-11h12-11h12-2010h11-10h11-18-9h109h10-]
g[-5-7---------------------------------------------]
d[-------------------------------------------------]
a[-------------------------------------------------]
e[-------------------------------------------------]

        2:38
e[-------------------------------------------------]
b[-17----------------------------------------------]
g[---14--------------------------------------------]
d[-----------7-5-5-7-5-5-7-5-7-5-5-7-5-5-----------]
a[---------------------------------------7---------]
e[-------------------------------------------------]

Related for The Vulture tab