Guitaretab - guitar tabs
Song name
# A B C D E F G H I J K L M N O P Q R S T U V W X Y Z

Showbread - The Pig Anorexia tab

-------------------------------------------------------------------------------
			    The Pig (Anorexia) - Showbread
-------------------------------------------------------------------------------

Tabbed By : B-2the-LAKE B 

Tuning:Standard


G|---------------------------------------------------------------------------|
D|---------------------------------------------------------------------------|
A|--------333333332222222200000000-------------------------------------------|
E|00000000-------------------------------------------------------------------|
(intro/verse 2)
[ Tab from: http://www.guitaretab.com/s/showbread/109199.html ]
G|---------------------------------------------------------------------------|
D|----------------------11111111---------------------------------------------|
A|-------3-3-3-2-0-0-0-0-----------------------------------------------------|
E|0-0-0-0--------------------------------------------------------------------|
("i am a fire...")

G|---------------------------------------------------------------------------|
D|------------------------11111111-------------------------------------------|
A|---------------------------------------------------------------------------|
E|00-000-000-000-000-000-0---------------------------------------------------|
(ending)

G|---------------------------------------------------------------------------|
D|----------------------11111111---------------------------------------------|
A|---------------------------------------------------------------------------|
E|000000-000000-000000-0-----------------------------------------------------|
(outro)

| /  slide up
| \  slide down
| h  hammer-on
| p  pull-off
| ~  vibrato
| +  harmonic
| x  Mute note
===============================================================================
Related for The Pig Anorexia tab
Advertisement will be closed in 10 seconds