Song name
# A B C D E F G H I J K L M N O P Q R S T U V W X Y Z

Showbread - The Sky tab

the sky alpha by showbread corrections are welcome


Reapeat these 2 lines 2x


e||----------------------------------------------------------------|
b||----------------------------------------------------------------|
g||------0-----0-----0----0--------0-----0-----0-----0-------2-----| 
d||--2-2---2-2---2-2--2-2----2-0-0---0-0---0-0---0-0---0-3-3-------|
a||----------------------------------------------------------------|
e||----------------------------------------------------------------|
    

e||----------------------------------------------------------------|
b||----------------------------------------------------------------|
g||-----2-------0-----0-------2-----2-----2-----2------------------| 
d||-3-3---3-2-2---2-2---2-0-0---0-0---0-0---0-0--------------------|
a||----------------------------------------------------------------|
e||----------------------------------------------------------------|

e||----------------------------------------------------------------|
b||----------------------------------------------------------------|
g||----------------------------------------------------------------| 
d||------2-----2-----2-----2-------2-----2-----2----2--------------|
a||--3-3---3-3---3-3---3-3---3-0-0---0-0---0-0---00---0------------|
e||----------------------------------------------------------------|

e||----------------------------------------------------------------|
b||----------------------------------------------------------------|
g||-----2-------0-----0-------0-----0-----0-----0------------------| 
d||-3-3---3-2-2---2-2---2-0-0---0-0---0-0---0-0--------------------|
a||----------------------------------------------------------------|
e||----------------------------------------------------------------|

e||----------------------------------------------------------------|
b||----------------------------------------------------------------|
g||----------------------------------------------------------------| 
d||------2-----2-----2-----2-------2-----2-----2----2--------------|
a||--3-3---3-3---3-3---3-3---3-0-0---0-0---0-0---00---0------------|
e||----------------------------------------------------------------|

e||----------------------------------------------------------------|
b||----------------------------------------------------------------|
g||-----2-----2------0-----0-------2-----0-----2-----0-------------| 
d||-3-3---3-3---3-2-2--2-2---2-0-0---0-0---0-0---0-0---------------|
a||----------------------------------------------------------------|
e||----------------------------------------------------------------|



e||----------------------------------------------------------------|
b||----------------------------------------------------------------|
g||------0-----0-----0----0--------0-----0-----0-----0-------2-----| 
d||--2-2---2-2---2-2--2-2----2-0-0---0-0---0-0---0-0---0-3-3-------|
a||----------------------------------------------------------------|
e||----------------------------------------------------------------|
    

e||----------------------------------------------------------------|
b||----------------------------------------------------------------|
g||-----2-------0-----0-------2-----2-----2-----2------------------| 
d||-3-3---3-2-2---2-2---2-0-0---0-0---0-0---0-0--------------------|
a||----------------------------------------------------------------|
e||----------------------------------------------------------------|


e||----------------------------------------------------------------|
b||----------------------------------------------------------------|
g||------0-----0-----0----0--------0-----0-----0-----0-------2-----| 
d||--2-2---2-2---2-2--2-2----2-0-0---0-0---0-0---0-0---0-3-3-------|
a||----------------------------------------------------------------|
e||----------------------------------------------------------------|
    

e||----------------------------------------------------------------|
b||----------------------------------------------------------------|
g||-----2-------0-----0-------2-----2-----2-----2------------------| 
d||-3-3---3-2-2---2-2---2-0-0---0-0---0-0---0-0--------------------|
a||----------------------------------------------------------------|
e||----------------------------------------------------------------|

e||----------------------------------------------------------------|
b||----------------------------------------------------------------|
g||----------------------------------------------------------------| 
d||------2-----2-----2-----2-------2-----2-----2----2--------------|
a||--3-3---3-3---3-3---3-3---3-0-0---0-0---0-0---00---0------------|
e||----------------------------------------------------------------|

e||----------------------------------------------------------------|
b||----------------------------------------------------------------|
g||-----2-----2------0-----0-------0-----0-----0-----0-------------| 
d||-3-3---3-3---3-2-2--2-2---2-0-0---0-0---0-0---0-0---------------|
a||----------------------------------------------------------------|
e||----------------------------------------------------------------|

e||----------------------------------------------------------------|
b||----------------------------------------------------------------|
g||----------------------------------------------------------------| 
d||------2-----2-----2-----2-------2-----2-----2----2--------------|
a||--3-3---3-3---3-3---3-3---3-0-0---0-0---0-0---00---0------------|
e||----------------------------------------------------------------|


e||----------------------------------------------------------------|
b||----------------------------------------------------------------|
g||-----2-----2------0-----0-------0-----0-----0-----0-------------| 
d||-3-3---3-3---3-2-2--2-2---2-0-0---0-0---0-0---0-0---------------|
a||----------------------------------------------------------------|
e||----------------------------------------------------------------

e||----------------------------------------------------------------|
b||----------------------------------------------------------------|
g||------------------------------------2-------0-------0-----0-----| x2
d||------2-------0-------2-----2---3-3---3-2-2---2-0-0---0-0-------|
a||--3-3---3-2-2---2-0-0---0-0---0---------------------------------|
e||----------------------------------------------------------------|

e||----------------------------------------------------------------|
b||----------------------------------------------------------------|
g||----------------------------------------------------------------| 
d||------2-----2-----2-----2-------2-----2-----2----2--------------|
a||--3-3---3-3---3-3---3-3---3-0-0---0-0---0-0---00---0------------|
e||----------------------------------------------------------------|

e||----------------------------------------------------------------|
b||----------------------------------------------------------------|
g||-----2-----2------0-----0-------2-----2-----2-----2-------------| 
d||-3-3---3-3---3-2-2--2-2---2-0-0---0-0---0-0---0-0---------------|
a||----------------------------------------------------------------|
e||----------------------------------------------------------------|

e||----------------------------------------------------------------|
b||----------------------------------------------------------------|
g||----------------------------------------------------------------| 
d||------2-----2-----2-----2-------2-----2-----2----2--------------|
a||--3-3---3-3---3-3---3-3---3-0-0---0-0---0-0---00---0------------|
e||----------------------------------------------------------------|

e||----------------------------------------------------------------|
b||----------------------------------------------------------------|
g||-----2-----2------0-----0-------0-----0-----0-----0-------------| 
d||-3-3---3-3---3-2-2--2-2---2-0-0---0-0---0-0---0-0---------------|
a||----------------------------------------------------------------|
e||----------------------------------------------------------------|
Tap to rate this tab
# A B C D E F G H I J K L M N O P Q R S T U V W X Y Z