Guitaretab - guitar tabs
Song name
# A B C D E F G H I J K L M N O P Q R S T U V W X Y Z

Showbread - Jessicas Song tab

-----------------------------------------------------------------------
			     Jessica’s song 
-----------------------------------------------------------------------
Tabbed by: Cruz F. (cortlover) for my girlfriend, Jessica.
Email: pritchardlvr@yahoo.com
Tuning: regular
[ Tab from: http://www.guitaretab.com/s/showbread/184819.html ]
e|---------1------------------1---------------------------------------|
B|----3-------3---------3--------3------------------1-----------------|
G|-------2-------2---------2--------2---------0--------0--------------|
D|-0----------------0------------------0---------2--------2-----------|
A|-----------------------------------------3-----------------3--------|
E|--------------------------------------------------------------------|

e|-----------------------------------0--------------------------------|
B|-----------1--------------1-----------1-----------------------------|
G|-----0--------0--------------0-----------0--------------------------|
D|--------2--------2--------------2-----------2-----------------------|
A|--3-----------------3--3----------------------3---------------------|
E|--------------------------------------------------------------------|

=======================================================================
Related for Jessicas Song tab