Song name
# A B C D E F G H I J K L M N O P Q R S T U V W X Y Z

Showbread - Missing Wife tab

e|--2-----2-----0-----0-----0-0-0-0------|
b|--3-----2-----0-----2-----3-5-3-2------|
g|--2-----2-----0-----2------------------|
d|---------------------------------------|   x7
a|---------------------------------------|
E|---------------------------------------|

e|-----2--2--2-------2--2--2------7--7--7----7--5--5--5--5--|
b|---3---------3---3---------3-------------8------5--5--5--5|
g|-2----2---2----2----4--4-----4---9--9--9------------------|
d|----------------------------------------------------------|  x7
a|----------------------------------------------------------|
E|----------------------------------------------------------|


e|--2-----2-----0-----0-----0-0-0-0----2----|
b|--3-----2-----0-----2-----3-5-3-2----3----|
g|--2-----2-----0-----2----------------2----|
d|------------------------------------------|   x7
a|------------------------------------------|
E|------------------------------------------|

I looked at this video off of youtube,
on the video), to see how the song is played, but part of it I did not tab correctly 
he is not using a pick in the video.
Tap to rate this tab
 
# A B C D E F G H I J K L M N O P Q R S T U V W X Y Z