Guitaretab - guitar tabs
Song name
# A B C D E F G H I J K L M N O P Q R S T U V W X Y Z

Showbread - Naked Lunch tab

This is only my second tab and I find that I'm good at tabbing solos but I'll tab some 
as soon as I can. This solo is fairly easy.

/  slide up
\  slide down
p  pull-off
b  bend
r  release bend
v  vibrato
h  hammer on
d  Don't let the bend release. Go straight to the next note.

-
e|-------------------------------------------------------------------------|
B|--7--7-7-7-7-----7--7-7-7-7----7------------------b9-r----7--7-7-7-7-----|
G|--b9-9-9-9-9r--7-b9-9-9-9-9r-7-b9-r-7-------7-9-7-b9-r-7--b9-9-9-9-9r--7-|
D|--------------9-------------9--------9---7-9------------9-------------9--|
A|--------------------------------------7-9--------------------------------|
E|-------------------------------------------------------------------------|
-
e|------------------------------------------------------------------------|
B|--7--7-7-7-7-----------------------------12-10-------------12-10--------|
G|--b9-9-9-9-9r--7------------------------------11-9-11-9---------11-9-11-|
D|--------------9--b9r-7-7-------------------------------12-9-------------|
A|----------------------9-9-7-\5-7-5-\2-0---------------------------------|
E|------------------------------------------------------------------------|
[ Tab from: http://www.guitaretab.com/s/showbread/83090.html ]
e|----------------------------------------------14--14-14-------17p14------|
B|--10-12-10--/14-17-------------14-17-------17-b17-17-17r-14-14-----17p14-|
G|-------------b16--16r-16-14-16-b16---16r-14------------------------------|
D|-------------------------------------------------------------------------|
A|-------------------------------------------------------------------------|
E|-------------------------------------------------------------------------|

e|--17p14----------------------------------------------14v-17p14----------|
B|-------17p14----------14--------------------------------------17p14-----|
G|-------------14h16p14-b16------14h16-----14h16-----14---------------14h-|
D|--------------------------14h16-----14h16-----14h16---------------------|
A|------------------------------------------------------------------------|
E|------------------------------------------------------------------------|

e|------------------------------------------------------------------------|
B|---------14-------------------------------------------------------------|
G|--16p14-b16d------------------------------------------------------------|
D|------------------------------------------------------------------------|
A|------------------------------------------------------------------------|
E|------------------------------------------------------------------------|


Questions or comments please tell me how I did.
Related for Naked Lunch tab