Song name
# A B C D E F G H I J K L M N O P Q R S T U V W X Y Z

Showcase Showdown - They Saved George The Thirds Brain tab

"They Saved George the Third's Brain" - The Showcase Showdown - Permanent Stains (1999)


Intro
E:----------------------------------------------------------------|
B:----------------------------------------------------------------|
G:--9-9-9---------------------------------------------------------|
D:--9-9-9-hold----------------------------------------------------|
A:--7-7-7---------------------------------------------------------|
E:----------------------------------------------------------------|


Part A
E:---------------------------------------------------------------|
B:---------------------------------------------------------------|
G:---9---9--------------7---7---9-9-9-9-9------------------------|
D:---9-9-9-9-7-7-7-7-7--7-7-7-7-9-9-9-9-9------------------------|
A:---7-9-7-9-7-7-7-7-7--5-7-5-7-7-7-7-7-7------------------------|
E:-----7---7-5-5-5-5-5----5---5----------------------------------|

Part B (They vary this little in song but easy to pick up where)
E:---------------------------------------------------------------|
B:---------------------------------------------------------------|
G:---9----------7-----9------------------------------------------|
D:---9-6x-7-----7-6x--9-6x---------------------------------------|
A:---7----7-6x--5-----7------------------------------------------|
E:--------5------------------------------------------------------|

Part C
E:----------------------------------------------------------------|
B:----------------------------------------------------------------|
G:---9----------7-------------------------------------------------|
D:---9-6x-7-----7-6x--9-6x----------------------------------------|
A:---7----7-6x--5-----9-------------------------------------------|
E:--------5-----------7-------------------------------------------|

Solo (I didnít tab in exact time.  Listen to song to get it because
it is crucial to get the right sound!!)
E:---------------------------------------------------------------|
B:----------------------------/5-3-1-0-------/5hold---3---1-0----|
G:-(--------4-5-4-2-0-)ó3x-------------2-0-2-----------------2-0-|
D:-(2-4-5-7-----------)------------------------------------------|
A:---------------------------------------------------------------|
E:---------------------------------------------------------------|

E:----------------------------------------------------------------|
B:-/5-3-1-0--------------/5-3-1-0---------------------------------|
G:----------2/4-4-2-0-------------2-0-----------------------------|
D:-------------------2----------------0h2-2-2-2-------------------|
A:------------------------------------0h2-2-2-2-------------------|
E:----------------------------------------------------------------|
Not sure about very end of solo.  Itís very hard to hear!



Order of song

Drums intro
Intro        1x
A            2x
B            1x
C            1x
B            2x
A            2x
B            2x
C            1x
B            2x
Solo with B  4x
B            1x
C            1x
B            2x
A            2x


Band website : http://www.showcaseshowdown.com/
Tap to rate this tab
 
# A B C D E F G H I J K L M N O P Q R S T U V W X Y Z