Song name
# A B C D E F G H I J K L M N O P Q R S T U V W X Y Z

Shpongle - Dorset Perception tab

This version should be pretty spot on compared 
to the other one, which wasn't.
I'm working on the solo, got half way to go
as soon as i do ill post it up.
None-the-less the intro is heaps fun to play
enjoy!

e:------0-------0--|------0-------5--|------0-------0--|------0-------5--|
B:--5-------6-----6|--5-------6-----6|--5-------6-----6|--5-------6-----6|
G:----4-------5----|----4-------5----|----4-------5----|----4-------5----|
D:6-------7--------|6-------7--------|6-------7--------|6-------7--------|
A:-----------------|-----------------|-----------------|-----------------|
E:-----------------|-----------------|-----------------|-----------------|

Repeat 28x
e:------7---5---7-5|
B:--5---------6----|
G:----4------------|
D:6-------7--------|
A:-----------------|
E:-----------------|
Tap to rate this tab
 
# A B C D E F G H I J K L M N O P Q R S T U V W X Y Z