Song name
# A B C D E F G H I J K L M N O P Q R S T U V W X Y Z

Shrinebuilder - Solar Benediction tab

Song: Solar Benediction
Artist: Shrinebuilder
Album: Shrinebuilder

------------------

Tab by Milan Mišic

------------------

Tunning: C# G# C# F# A# C#

KEY TO TAB : h: hammer-on
             p: pull-off
             b: bend
             r: release bend
             /: Slide up to

----------------------------

RIFF 1:

-Wino plays this riff 4 times:

C#:-----------------------------------------------|
A#:-----------------------------------------------|
F#:-----------------------------------------------|
C#:-----------------------------------------------|
G#:-----------------------------------------------|
C#:--12-14-14-14-14-14-12-12-12-0-12-0-15-15-15-0-|

C#:-----------------------------------------------|
A#:-----------------------------------------------|
F#:-----------------------------------------------|
C#:-----------------------------------------------|
G#:-----------------------------------------------|
C#:--12-14-14-14-14-14-12-12-12-0-12-0-15-0-12-14-|

-While Scott goes:

C#:------------------------|----------------------|
A#:------------------------|----------------------|
F#:--------------------12--|----------------------|
C#:--12h14-12-14b15r14-----|---12h14-12-14b15r14--|
G#:------------------------|----------------------|
C#:------------------------|----------------------|

C#:------------------------|----------------------|
A#:------------------------|----------------------|
F#:--------------------12--|----------------------|
C#:--12h14-12-14b15r14-----|---12h14-12-14b15-----|
G#:------------------------|----------------------|
C#:------------------------|----------------------|


RIFF 2:

C#:------------------------------------------------|
A#:------------------------------------------------|
F#:------------------------------------------------|
C#:--12h14-14-12h14-14-12h14-14-12-14-15-15-14-12--|  X4 
G#:--12h14-14-12h14-14-12h14-14-12-14-15-15-14-12--|
C#:--12h14-14-12h14-14-12h14-14-12-14-15-15-14-12--|

-Than riff 1 and 2 again


RIFF 3:

- While Wino plays solo:

C#:---------------------------------------------|
A#:---------------------------------------------|
F#:---------------------------------------------|
C#:--7h9-7-10-9-7h9-7-7h9-7h9-7-10-9-7h9-7-7h9--|  X2
G#:--7h9-7-10-9-7h9-7-7h9-7h9-7-10-9-7h9-7-7h9--|
C#:--7h9-7-10-9-7h9-7-7h9-7h9-7-10-9-7h9-7-7h9--|


RIFF 4:

C#:-----------------------------------|
A#:-----------------------------------|
F#:-----------------------------------|
C#:--7h9-9-7h9-9-7h9-9-7-9-10-10-9-7--|  X4
G#:--7h9-9-7h9-9-7h9-9-7-9-10-10-9-7--|
C#:--7h9-9-7h9-9-7h9-9-7-9-10-10-9-7--|


RIFF 5:

- Short part in between:

C#:-----------------------------------|
A#:-----------------------------------|
F#:-----------------------------------|
C#:------/12--12b14-------------------|
G#:-----------------------------------|
C#:--/12------12b14-------------------|

RIFF 6:

C#:-----------------------------------------------|
A#:-----------------------------------------------|
F#:-----------------------------------------------|
C#:-----------------------------------------------|  X4
G#:--5-7-5-8-5-7-5--------------------------------|
C#:----------------2------------------------------|


RIFF 7:

-Part A:

C#:--------------------------|
A#:--------------------------|
F#:--------------------------|
C#:--12-14-12-15-12-14-12-2--|
G#:--12-14-12-15-12-14-12-2--|
C#:--12-14-12-15-12-14-12-2--|

-Part B:

C#:---------|
A#:---------|
F#:---------|
C#:--7-5-3--|
G#:--7-5-3--|
C#:--7-5-3--|

-Scott plays 4xA, B, 4Xa, B and 3XA,
 while Wino play just a few notes from
 the scale in the back

RIFF 8:

-Part A:

C#:---------------------------------------|
A#:---------------------------------------|
F#:---------------------------------------|
C#:-----12----12----12----12--------------|
G#:--14----14----14----14----14-14-14h15--|
C#:---------------------------------------|

-Part B:

C#:---------------------------------------------------|
A#:---------------------------------------------------|
F#:---------------------------------------------------|
C#:-----12----12----12----12--------------------------|
G#:--14----14----14----14----14-14-14h15-15p14-12h14--|
C#:---------------------------------------------------|

- 6XA, 3XB,A


RIFF 8:

C#:---------------------------------------------------|
A#:---------------------------------------------------|
F#:---------------------------------------------------|
C#:---------------------------------------------------|
G#:--14-14-14-14-14-14-14-14-14-14-14-14-14-12-12-12--|
C#:---------------------------------------------------|
                                                         X8
C#:---------------------------------------------------|
A#:---------------------------------------------------|
F#:---------------------------------------------------|
C#:---------------------------------------------------|
G#:--15-15-15-15-15-15-15-15-15-15-15-15-15-12-12-12--|
C#:---------------------------------------------------|


-And RIFF 7-Part A X3 in the end.

Official website of Shrinebuilder:
http://www.myspace.com/shrinebuildergroup
http://www.neurotrecordings.com/artists/shrinebuilder/index.aspx
Tap to rate this tab
# A B C D E F G H I J K L M N O P Q R S T U V W X Y Z