Guitaretab - guitar tabs
Song name
# A B C D E F G H I J K L M N O P Q R S T U V W X Y Z

Shubidua - Mcarine tab

From: lohmann@iesd.auc.dk (Jens Lohmann-Hansen)
----------------------------------------------------------------------
{title:McArine}
{st:ShuBiDua}

[C] [G] [F] [Bb] [C]

{start_of_tab}
e---------------------------------
H-----5-8---5---------------------
G-7b9-----7---7------5-7-5-7b9~~~-
D---------------5-h7--------------
{end_of_tab}
  
A [C]kender en skotte, der [F]hedder McAr[C]ine
Han sejler en [F]dejlig s? [G]
Han har [Am]n?sten ingen penge
men det [F]varer sikkert l?nge
inden [C]gamle McArine[G] er d?d[Bb] [F] [C].

[C] [G] [F] [Bb] [C]

McArine bor alene han er aldrig blevet gift
for en kone er for dyr i drift
og resten af verset
kan slet ikke l?se
Det er skrevet med en frygtelig skrift

{start_of_chorus}
[G] Gamle McArine har et [Dm7]hjemmebr?nderi
han [Am]br?nder [F]elv sin [G]whiskey
Tolderen siger McAr[Dm7]ine ikke m?
men [Am]det vil McAr[F]ine sgu' da [G]skide p?
{end_of_chorus}

{start_of_tab}
e----------------------------------------------------------
H-----8-10~~--8h10-8---------------------10----------------
G-7b9----------------9-7-----------5-7b9----9b7-5-7b9-7~~--
D------------------------10~--5-h7-------------------------

e-10/12-10-8~~-------10----------------------10------------------
H--------------8-h10----10-8--------------10----10---------------
G----------------------------9-/7-5~~-7b9----------9b7-5-7b9-5~~-
D----------------------------------------------------------------
{end_of_tab}

N?r han fyrer en s?kkepibe kommer slangen helt til live
ovre i Loch Ness
Den er helt flad af grin
n?r den gamle McArine
spiller den med Porgy and Bess

{comment:Chorus}

{start_of_tab}
------0--------0-------------0-8-
--------8---10-----------------5-
--7/9-----9------9-7-----------5-
---------------------10--------5-
------------------------5-h7-----
{end_of_tab}
----------------------------------------------------------------------

As always, comments/corrections are welcome.
MORE DANISH CRD/TAB/CHOPRO's! :)

-- 
                                                         lohmann@iesd.auc.dk
----------------------------------------------------------------------------
- Chairman of EDA, Public Relations Dep.
- My home page
[ Tab from: http://www.guitaretab.com/s/shubidua/17189.html ]
Related for Mcarine tab