Song name
# A B C D E F G H I J K L M N O P Q R S T U V W X Y Z

Shubidua - Hvalen Hvalborg tab

Help us improve GuitareTab! Take a short survey!
E|-----------------------------------------------||
B|------------------0----------------------------||
G|------2---2---2------2-----------------0-------||
D|---4---------------------2---0--2--4-----------||
A|-----------------------------------------------||
E|-----------------------------------------------||

E|-----------------------------------------------||
B|---3--0------0---------------------------------||
G|---------2-------------------------------------||
D|----------------0--2--4------------------------||
A|-----------------------------------------------||
E|-----------------------------------------------||

E|-----------------------------------------------||
B|------------------0----------------------------||
G|------2---2---2------2------------------0------||
D|---4------------------------2--0--2--4---------||
A|-------------------------2---------------------||
E|-----------------------------------------------||

E|-----------------------------------------------||
B|---3--0------0---------------------------------||
G|---------2-------------------------------------||
D|----------------0--2--0------------------------||
A|-----------------------------------------------||
E|-----------------------------------------------||

E|-----------------------------------------------||
B|-----3--3--3--3--2--0--------------------------||
G|---2--------------------2----------------------||
D|-----------------------------------------------||
A|-----------------------------------------------||
E|-----------------------------------------------||

E|-----------------------------------------------||
B|---0--0--0-------------------------------------||
G|------------2-----2------2---------------------||
D|---------------4-------------------------------||
A|-----------------------------------------------||
E|-----------------------------------------------||

E|-----------------------------------------------||
B|-----3--3--3--3--2--0--------------------------||
G|---2--------------------2----------------------||
D|4----------------------------------------------||
A|-----------------------------------------------||
E|-----------------------------------------------||

E|-----------------------------------------------||
B|------0--0--0----------------------------------||
G|---2-----------2--0--2-------------------------||
D|-----------------------------------------------||
A|-----------------------------------------------||
E|-----------------------------------------------||

E|-----------------------------------------------||
B|-0--2--3--3--3--3--2--0------------------------||
G|-----------------------------------------------||
D|-----------------------------------------------||
A|-----------------------------------------------||
E|-----------------------------------------------||

E|-----------------------------------------------||
B|------------------0----------------------------||
G|------0--2--2--2-------------------------------||
D|---4-----------------0-------------------------||
A|-----------------------------------------------||
E|-----------------------------------------------||

E|-----------------------------------------------||
B|---0--0----0-----------------------------------||
G|--------------4---0--0--0----------------------||
D|-----------------------------------------------||
A|-----------------------------------------------||
E|-----------------------------------------------||

Related for Hvalen Hvalborg tab