Guitaretab - guitar tabs
Song name
# A B C D E F G H I J K L M N O P Q R S T U V W X Y Z

Shudder To Think - Red House tab

Shudder To Think
Red House (Album: Funeral At The Movies&Ten Spot)


Verse:

  F5                  G5                (chords)
    E E E E E Q  E   +E  E E E E Q.     (note durations, E=eighth, Q=quarter)
E|-----------------|-------------------|
B|-----------------|-------------------|
G|-----------------|-------------------|
D|--2-2-3-2-3-2--5-|-(5)-5-5-5-5-5-----|
A|--3-3-3-3-3-3--5-|-(5)-5-7-5-7-5-----|
E|--1-1-1-1-1-1--3-|-(3)-3-3-3-3-3-----|

Chorus:

   A5             E5                 C             Em
    Q Q E E E E   +E  E E E E E Q   Q  Q  Q E E   +E  Q E Q   Q
E|--------------|-----------------|-------------|-------0----------|
B|--------------|-----------------|-------1-----|------------------|
G|--2-2-2-2-2---|-----------------|---------0---|-----0------------|
D|--2-2-2-2-2-2-|-(2)-2-2-2-2-2-2-|----2--------|------------------|
A|--0-0-0-0-0-2-|-(2)-2-2-2-2-2-2-|-3---------2-|-(2)----2/3~------|
E|------------0-|-(0)-0-0-0-0-0-0-|-------------|-------------3----|

Solo:
[ Tab from: http://www.guitaretab.com/s/shudder-to-think/141766.html ]
  Q  Q  E  Q E   +E  Q  E Q E E   +E   E E E E E E E    +E  E  E E  E Q.
E|--------------|----------------|---------------------|---------------------|
B|-------8------|--------8-------|---------------------|---------------------|
G|----------9---|----------9-7---|---------------------|-----7---------------|
D|-7--9-------7-|-(7)-9--------9-|-(9)-10-9-7-9-7-9-9/-|-(9)------7----------|
A|--------------|----------------|---------------------|-------10---10-7-----|
E|--------------|----------------|---------------------|---------------------|


  Q  Q  E Q E   Q E Q E  E E   E E E  Q E  E E   +W
E|-------------|--------------|-----------------|------------|
B|-------8---8-|--------------|-----------------|------------|
G|---------9---|-9-7----------|-----------------|------------|
D|-7--9--------|-----9-9-10-9-|-7-9-7---------9-|-(9)b9.5----|
A|-------------|--------------|-------10-7-10---|------------|
E|-------------|--------------|-----------------|------------|


Here are some chords for the rest

F5                 G5
She's got real big bones
A5      B5
And a gorgeous home
C5            D5
And between her, um
F5                                 G5
And me there's something quite good I love

...

Bdim   Bdim   Bdim
Dream, dream, dream
G
But don't look
Related for Red House tab