Song name
# A B C D E F G H I J K L M N O P Q R S T U V W X Y Z

Shudder To Think - Ballad Of Maxwell Demon tab

This is my first tab ever, it's quite easy, just follow and feel it to do it well. I've 
the chords from  nick_picard, so thank him!
In the "I came down the water..." just do the bass with the E and A strings with the chords


------------------------------------------------------------|
------------------------------------------------12----------|
7s11-11--11-12-14---12-11--9--7s11--11-11-12-14----14-12-11-|
------------------------------------------------------------|
------------------------------------------------------------|
------------------------------------------------------------|

-----------------------------------------------------------|
-------------------15b17r--15-17----17--15-----------------|
7s11-11---11-12-14-----------------------------------------|
-----------------------------------------------------------|
-----------------------------------------------------------|
-----------------------------------------------------------|

D                        G
Got tired of wastin' gas livin' above the planets
D                          G
Mister, show me the way to Earth
D                        D7
The boys in Quadrant 44, with their vicious metal hounds
G
Never come around here no more

E                         G     A
Sometimes I wonder if I'm still alive
E            G           A
I'm six-feet down at age 25
G
Maxwell led the demon rock hand jive

D      A         Bm             C      G         Bm E
I came down like water, for the age of solar love
D   A           Bm                C             G
And hail to the father, kiss your sons and your daughters
Bm       E          D     A          Bm          C    G         Bm
Goodbye, goodbye... steam scared and roller, Ladytron controller
Bm                    A            G
Ten feet tall, better walk it back down

------------------------------------------------------------|
------------------------------------------------12----------|
7s11-11--11-12-14---12-11--9--7s11--11-11-12-14----14-12-11-|
------------------------------------------------------------|
------------------------------------------------------------|
------------------------------------------------------------|

-----------------------------------------------------------|
-------------------15b17r--15-17----17--15-----------------|
7s11-11---11-12-14-----------------------------------------|
-----------------------------------------------------------|
-----------------------------------------------------------|
-----------------------------------------------------------|


Despite the great duress, always get off, 'cause damn it.
It's the only surefire way to win
Your poison doesn't hurt me, no, tender wine disguised in a milk bath
Bad T.V. show

I'm here to celebrate the one below
Last that I heard from good God above
Was the slap on my ass by a lipstick-kissed elbow glove

I came down like water, for the age of solar love
And hail to the father, kiss your sons and your daughters
Goodbye, goodbye... steam scared and roller, Ladytron controller
Ten feet tall, better walk it back down

I came down like water, for the age of solar love
I came down like water, kiss your sons and your daughters


Whoa, ohhh, ohhh, ohhh (to fade. play chorus chords over)
Tap to rate this tab
# A B C D E F G H I J K L M N O P Q R S T U V W X Y Z